Inuyasha Theme

Inuyasha

tom: C
|---------------------------------------------------------------------------------------------------
|---------------------------------------------------------------------------------------------------
|---------------------------------12----10-------------------12----10-------------------------------
|-----7-9-10-12-14----12-14------------12-14----12-14-------------12-14-12-10-7-5-7-9-7-5-2---------
|---------------------------------------------------------------------------------------------------
|---------------------------------------------------------------------------------------------------

|----------------------------------------------------------------------------------8----------------
|-------------------------------------------------------------------------------12---12-------------
|------------------------12-----10-------------12---10------------12------10-12---------------------
|---7-9-10-12-14----12-14---------12-14---12-14-------12-14--12-14-----14---------------------------
|---------------------------------------------------------------------------------------------------
|---------------------------------------------------------------------------------------------------

|---------------------------------------------------------------------------------------------------
|-------------------------------------------------------------------------------12-10---------------
|-------------------------12----10------------12----10------------12-----10-12----------------------
|-----7-9-10-12-14--12-14---------12-14--12-14--------12-14--12-14-----14---------------------------
|---------------------------------------------------------------------------------------------------
|---------------------------------------------------------------------------------------------------

Página 1 / 1

Letras e título
Acordes e artista

resetar configurações
OK