Notificações Amigos pendentes

      Ira!

      Flerte Fatal (Acústico MTV)

      216.176 exibições
      Tom: E
        
      
         E                     C#m                  C                       C#m
      e|------------------------------9----9-----------08------8------8---------09----9-9-9--------|
      b|-----x-9----------------------9----9-----------08------8------8---------09-09-9-9-9--------|
      G|-9-9-x-9---------9/11\9---------09---9/11\9----09--09----09-x-----------09-09-------9/11\9-|
      D|-9-9-----------9-9/11\9-x--11---11---9/11\9-x--10--10----10-x-----------11-11-------9/11\9-|
      A|-7-7------9/11-0--------x--11---11----------x--10--10------------10/11--11-----------------|
      E|----------0----------------09--------------------------------------------------------------|
      
      
         E   C#m   C    B    
      e|-7----9----8----7-|
      b|-9----9----8----7-|
      G|-9----9----9----8-|
      D|-9----11---10---9-|
      A|-7----11---10---9-|
      E|-7----9----8----7-|
      
      
      E
      Tanta gente já descansa em paz
      C#m
      Um rock star agora é lenda
      C7+
      Esse flerte é um flerte fatal
      C#m
      Esse flerte é um flerte fatal
      E
      Que vai te consumir
      C#m
      Em busca de um prazer individual
      C7+
      Esse flerte é um flerte fatal
      C#m                          E  B
      É sempre gente muito especial
      
      E
      Muita gente já ultrapassou
      C#m
      A linha entre o prazer e a dependência
      C7+
      E a loucura que faz
      C#m
      O cara dar um tiro na cabeça
      E
      Quando chega o além
      C#m
      E os pés não tocam mais no chão
      C7+
      Esse flerte é um flerte fatal
      C#m
      Esse flerte é um flerte fatal
      
      E                                  :
      Esse flerte é um flerte fatal      :
      B/D#                                  :
      Esse flerte é um flerte fatal      :
      D                                  : Refrão 2x
      Esse flerte é um flerte fatal      :
      A/C#                          E  B :
      Esse flerte é um flerte fatal      :
      
      Solo: E C#m C7+ C#m
      
      
          Pré Solo
      
              B         E                               C#m        
      e|-------------|-----|--------------------------|-------|-9^-9^/7-9/7~----------|
      b|-------------|-9-9-|---------------------10/9-|-09-09-|-------------5-7-5-7-5-|
      G|-8-8-8-8-8-8-|-9-9-|----------------11/9------|-09-09-|-----------------------|
      D|-9-9-9-9-9-9-|-9-9-|------9----11/9-----------|-11-11-|-----------------------|
      A|-9-9-9-9-9-9-|-7-7-|-9/11---11----------------|-11-11-|-----------------------|
      E|-7-7-7-7-7-7-|-----|--------------------------|-------|-----------------------|
      
      
          C                                C#m
      e|-08-08-|-10-8----------10-8----------------------------------|
      b|-08-08-|-08-8-08-08-08-08-8-08-08---09-09----12-12-12-12-12--|
      G|-09-09-|-09-9-09-09-09-09-9-09-09---09-09-09-09-19-19-19-19--|
      D|-10-10-|------10-10-10------10-10---11-11-11-11-11-11-11-11--|
      A|-10-10-|----------------------------11----11-11-11-11-11-11--|
      E|-08-08-|-----------------------------------------------------|
      
      
      Segunda Parte do Solo:(E C#m C C#m)
         E                                                                       *várias vezes
      
      e|---|----------------------------------------------10--12-14^-14-12-14-12-|-----12-12-|
      b|---|-10-9-7---7----10-9-10-9-7---7----------10-12------------------------|-15^-------|
      G|---|--------9---9--------------9---9-9-9-9/------------------------------|-----------|
      D|---|---------------------------------9-9-9/------------------------------|-----------|
      A|---|---------------------------------------------------------------------|-----------|
      E|---|---------------------------------------------------------------------|-----------|
      
      
      e|---------------------------15-10-12---------|
      b|-10^-10-10/8---10-8-10-10-----09-11-9^9-----|
      G|-------------9------09-09---------------9---|
      D|--------------------------------------------|
      A|--------------------------------------------|
      E|--------------------------------------------|
      
      
      E
      Muita gente já ultrapassou
      C#m
      A linha entre o prazer e a dependência
      C7+
      E a loucura que faz
      C#m
      O cara dar um tiro na cabeça
      E
      Quando chega o além
      C#m
      E os pés não tocam mais no chão
      C7+
      Esse flerte é um flerte fatal
      C#m                           E  B
      Esse flerte é um flerte fatal
      
      B                             :         
      Esse flerte é um flerte fatal :
      F#/A#                         :
      Esse flerte é um flerte fatal :
      G#m                           : 3x
      Esse flerte é um flerte fatal :
      G                             :
      Esse flerte é um flerte fatal :
      
      B
      Flerte fatal
      F#/A#
      Flerte fatal
      G#m
      Flerte fatal
      G                             B B B    E C#m C7+ C#m E
      Esse flerte é um flerte fatal

      Comentários 3

      140 .
      • beckman631 beckman631: Em 02/02/2014 14:18

        video aula. URGENTE!!!

      • bruno.delima.73 bruno.delima.73: Em 30/08/2013 18:29

        vddd fazem o viideo aula ! PFV

      • gordo gordo: Em 28/06/2011 12:43

        ola nao estou conseguindo tocar esta musica por favor alguem ae poe uma video aula pq eu quero muito apresnder a toca-la.
        obrigado
        murilo

      140 cancelar

      conseguiu tocar?

      • •••

      covers

      Grave um vídeo tocando Flerte Fatal (Acústico MTV) e mande pra gente!

      Ex.: http://www.youtube.com/watch?v=0IvSvIwGdwk
      ver covers de outras músicas »
      0:00 / 0:00

      Capítulos

        1 versão de violão dificuldade exibições contribuição e correção
        1 versão de guitarra dificuldade exibições contribuição e correção
        1 versão de cavaco dificuldade exibições contribuição e correção
        1 versão de teclado dificuldade exibições contribuição e correção
        play/pausefechar subir/descer velocidade
        6ª corda E5ª corda A4ª corda D3ª corda G2ª corda B1ª corda E
          acordes
          publicidade
          fechar
          ok