Cifra Club

Aprenda

Teorema

Ira!

Cifra: Versao-02 (violão e guitarra)
tom: A
Intro: (A A9 A4 A) 4x
 
A
Não vá embora 
D
Fique um pouco mais 
    G
Ninguém sabe fazer 
   D
O que você me faz 
A
É exagero 
  D
E pode até não ser 
   G
O que você consegue 
    D
Ninguém sabe fazer. 

Riff 1

  Bm               E
Parece energia mas é só distorção 
  F#m                       D
E não sabemos se isso é problema 
                   Bm   E  F#m
Há há há!!!  Oh Oh Oh!!!

Riff 2

      D    E  (A  A9 A4 A) 2X
Ou se é a solução 

Riff 3

A
Não tenha medo 
     D
Não preste atenção 
G
Não dê conselhos 

     D
Não peça permissão 


A              D           G
É só você quem deve decidir o que fazer 
     D
Pra tentar ser feliz 

Riff 1

  Bm               E
Parece energia mas é só distorção 
  F#m                       D
E não sabemos se isso é problema 
      E            Bm   E  F#m
Há há há!!!  Oh Oh Oh!!!

Riff 2
 
      D    E    A
Ou se é a solução 

Riff 4 + Riff 5 (Violão)

A
Não vá embora 
D
Fique um pouco mais 
    G
Ninguém sabe fazer 
   D
O que você me faz 
A
É exagero 
  D
E pode até não ser 
   G
O que você consegue 
    D
Ninguém sabe fazer. 

Riff 1

  Bm                   E
Parece um teorema sem ter demonstração 
    F#m                D
E parece que sempre termina 
      E            Bm   E  F#m
Há há há!!!  Oh Oh Oh!!!

Riff 2
           D      E      A
Mais não tem fim!!!
 


Riff 1

A|--2--5--0--2--|
E|--------------|

Riff 2

D|--2h4~~---4p2p0-2--0--2--|
A|-------------------------| (3X)
E|-------------------------|

Riff 3

E|---------------------------------------------|
B|-7-7-7-7-7-7-9-9-9-9-9-9-10-10-10-10-10-10---|
G|-xxxxxxxxxxxxxxxxxxxxxxx-9--9--9--9--9--9----|
D|-4-4-4-4-4-4-6-6-6-6-6-6-7--7--7--7--7--7----|
A|---------------------------------------------|
E|---------------------------------------------|

Riff 4

E|----------------------------------|
B|-7-7-7-7-7-7-9-9-9-9-9-9----------|
G|-xxxxxxxxxxxxxxxxxxxxxxx-2~~--2~~-|
D|-4-4-4-4-4-4-6-6-6-6-6-6-2~~--2~~-|
A|-------------------------0~~--0~~-|
E|----------------------------------|

Riff 5 (Violão)

        A5                        A5
E|----------------------------------|
B|-8-8-8-8-6-6-6-6-5-5-5-5-3-3-3-3--|
G|-xxxxxxxxxxxxxxxxxxxxxx2-2-2-2-2--|
D|-5-5-5-5-3-3-3-3-2-2-2-2-0-0-0-0--|
A|-0-0-0-0-0-0-0-0-0-0-0-0-0-0-0-0--|
E|----------------------------------|
Composição de Dado Villa-Lobos / Renato Russo
Colaboração e revisão:
  • Diogo Massaneiro
220 exibições
    • ½ Tom
    • A
    • Bb
    • B
    • C
    • Db
    • D
    • Eb
    • E
    • F
    • F#
    • G
    • Ab
  • Adicionar à lista

    0 comentários

    Ver todos os comentários
    00:00 / 00:00
    outros vídeos desta música
    repetir qualidade Automático
    Outros vídeos desta música
    00:00 / 00:00
    Automático

    Cifra Club Pro

    Aproveite o Cifra Club com benefícios exclusivos e sem anúncios
    Cifra Club Pro
    Aproveite o Cifra Club com benefícios exclusivos e sem anúncios
    OK