Cifra Club

Aprenda

Alexander the Great

Iron Maiden

Tab de baixo: Principal
                                    |-3-| |-3-| |-3-|  
     W                    E   E  E  S S S S S S S S S  
G||-------------------|----------9----9---9---9---9---|
D||-------------------|-------9-----9---9---9---9---9-|
A||-------------------|---7---------------------------|
E||-------------------|--(0)--------------------------|


             |-3-| |-3-| |-3-|               |-3-| |-3-| |-3-|  
   E   E  E  S S S S S S S S S     E   E  E  S S S S S S S S S  
----------9----9---9---9---9---|----------9----9---9---9---9---|
-------9-----9---9---9---9---9-|-------9-----9---9---9---9---9-|
---7---------------------------|---7---------------------------|
--(0)--------------------------|--(0)--------------------------|


             |-3-| |-3-| |-3-|             |-3-| |-3-| |-3-|  
   E   E  E  S S S S S S S S S    E  E  E  S S S S S S S S S  
----------9----9---9---9---9---|--------7----7---7---7---7---|
-------9-----9---9---9---9---9-|-----7-----7---7---7---7---7-|
---7---------------------------|--5--------------------------|
--(0)--------------------------|-----------------------------|


           |-3-| |-3-| |-3-|             |-3-| |-3-| |-3-|  
  E  E  E  S S S S S S S S S    E  E  E  S S S S S S S S S  
--------7----7---7---7---7---|--------7----7---7---7---7---|
-----7-----7---7---7---7---7-|-----7-----7---7---7---7---7-|
--5--------------------------|--5--------------------------|
-----------------------------|-----------------------------|


           |-3-| |-3-| |-3-|               |-3-| |-3-| |-3-|  
  E  E  E  S S S S S S S S S     E   E  E  S S S S S S S S S  
--------7----7---7---7---7---|----------9----9---9---9---9---|
-----7-----7---7---7---7---7-|-------9-----9---9---9---9---9-|
--5--------------------------|---7---------------------------|
-----------------------------|--(0)--------------------------|


             |-3-| |-3-| |-3-|               |-3-| |-3-| |-3-|  
   E   E  E  S S S S S S S S S     E   E  E  S S S S S S S S S  
----------9----9---9---9---9---|----------9----9---9---9---9---|
-------9-----9---9---9---9---9-|-------9-----9---9---9---9---9-|
---7---------------------------|---7---------------------------|
--(0)--------------------------|--(0)--------------------------|


             |-3-| |-3-| |-3-|             |-3-| |-3-| |-3-|  
   E   E  E  S S S S S S S S S    E  E  E  S S S S S S S S S  
----------9----9---9---9---9---|--------7----7---7---7---7---|
-------9-----9---9---9---9---9-|-----7-----7---7---7---7---7-|
---7---------------------------|--5--------------------------|
--(0)--------------------------|-----------------------------|


           |-3-| |-3-| |-3-|             |-3-| |-3-| |-3-|  
  E  E  E  S S S S S S S S S    E  E  E  S S S S S S S S S  
--------7----7---7---7---7---|--------7----7---7---7---7---|
-----7-----7---7---7---7---7-|-----7-----7---7---7---7---7-|
--5--------------------------|--5--------------------------|
-----------------------------|-----------------------------|


                                ^                   ^                 
           |-3-| |-3-| |-3-|                                          
  E  E  E  S S S S S S S S S    W                   W                 
--------7----7---7---7---7---|--9----------------|--9----------------|
-----7-----7---7---7---7---7-|--9----------------|--9----------------|
--5--------------------------|--7----------------|--7----------------|
-----------------------------|-------------------|-------------------|


  ^                   ^                   ^                   ^                 
  W                   W                   W                   W                 
--5----------------|--9----------------|--9----------------|--9----------------|
--5----------------|--9----------------|--9----------------|--9----------------|
--3----------------|--7----------------|--7----------------|--7----------------|
-------------------|-------------------|-------------------|-------------------|


  ^                   ^                                                
  W                   W                   E  S S E  S S E  S S E  S S  
--5----------------|--9----------------|------------------------------|
--5----------------|--9----------------|------------------------------|
--3----------------|--7----------------|--7--7-7-7--7-7-7--7-7-7--7-7-|
-------------------|-------------------|------------------------------|


  E  S S E  S S E  S S E  S S    E  S S E  S S E  S S E  S S  
------------------------------|------------------------------|
------------------------------|------------------------------|
--7--7-7-7--7-7-7--7-7-7--7-7-|--3--3-3-3--3-3-3--3-3-3--3-3-|
------------------------------|------------------------------|


  E  S S E  S S E  S S E  S S    E  S S E  S S E  S S E  S S  
------------------------------|------------------------------|
------------------------------|------------------------------|
--7--7-7-7--5-----------------|--7--7-7-7--7-7-7--7-7-7--7-7-|
--------------8-7--7-7-7--7-7-|------------------------------|


  E  S S E  S S E  S S E  S S    E  S S E  S S E  S S E  S S  
------------------------------|------------------------------|
------------------------------|------------------------------|
--7--7-7-7--7-7-7--7-7-7--7-7-|--3--3-3-3--3-3-3--3-3-3--3-3-|
------------------------------|------------------------------|


  E  S S E  S S E  S S E  S S    E  S S E  S S E  S S E  S S  
------------------------------|------------------------------|
------------------------------|------------------------------|
--7--7-7-7--5-----------------|--7--7-7-7--7-7-7--7-7-7--7-7-|
--------------8-7--7-7-7--7-7-|------------------------------|


  E  S S E  S S E  S S E  E     E  S S E  S S E  S S E  S S  
-----------------------------|------------------------------|
-----------------------------|------------------------------|
--7--7-7-7--7-7-7--7-7-5--5--|--3--3-3-3--3-3-3--3-3-3--3-3-|
-----------------------------|------------------------------|


  Q.     S S Q.     E     E  S S E  S S E  S S E  S S  
-----------------------|------------------------------|
-----------------------|------------------------------|
--2--------------------|--7--7-7-7--7-7-7--7-7-7--7-7-|
---------5-3-2------0--|------------------------------|


  E  S S E  S S E  S S E  S S    E  S S E  S S E  S S E  S S  
------------------------------|------------------------------|
------------------------------|------------------------------|
--7--7-7-7--7-7-7--7-7-7--7-7-|--3--3-3-3--3-3-3--3-3-3--3-3-|
------------------------------|------------------------------|


  Q.     S S Q.     E     E  S S E  S S E  S S E  S S  
-----------------------|------------------------------|
-----------------------|------------------------------|
--2--------------------|--7--7-7-7--7-7-7--7-7-7--7-7-|
---------5-3-2------0--|------------------------------|


  E  S S E  S S E  S S E  S S    E  S S E  S S E  S S E  S S  
------------------------------|------------------------------|
------------------------------|------------------------------|
--7--7-7-7--7-7-7--7-7-7--7-7-|--3--3-3-3--3-3-3--3-3-3--3-3-|
------------------------------|------------------------------|


  E  S S E  S S E  S S E  S S    E  S S E  S S E  S S E  S S  
------------------------------|------------------------------|
------------------------------|------------------------------|
--2--2-2-2----------------7-7-|--7--7-7-7--7-7-7--7-7-7--7-7-|
------------5-3-2--2-2-2------|------------------------------|


  E  S S E  S S E  S S E  S S    E  S S E  S S E  S S E  S S  
------------------------------|------------------------------|
------------------------------|------------------------------|
--7--7-7-7--7-7-7--7-7-7--7-7-|--3--3-3-3--3-3-3--3-3-3--3-3-|
------------------------------|------------------------------|


  E  S S E  S S E  S S E  S S    E  S S E  S S E  S S E  S S  
------------------------------|------------------------------|
------------------------------|------------------------------|
--2--2-2-2--------------------|--7--7-7-7--7-7-7--7-7-7--7-7-|
------------5-3-2--2-2-2--0-0-|------------------------------|


  E  S S E  S S E  S S E  S S    E  S S E  S S E  S S E  S S  
------------------------------|------------------------------|
------------------------------|------------------------------|
--5--5-5-5--5-5-5--5-5-5--5-5-|------------------------------|
------------------------------|--5--5-5-5--5-5-5--5-5-5--5-5-|


  E  S S E  S S E  S S E  S S    E  S S E  S S E  S S E  S S  
------------------------------|------------------------------|
------------------------------|------------------------------|
--3--3-3-3--3-3-5--5-5-5--5-5-|--7--7-7-7--7-7-7--7-7-7--7-7-|
------------------------------|------------------------------|


  E  S S E  S S E  S S E  S S    E  S S E  S S E  S S E  S S  
------------------------------|------------------------------|
------------------------------|------------------------------|
--5--5-5-5--5-5-5--5-5-5--5-5-|------------------------------|
------------------------------|--5--5-5-5--5-5-5--5-5-5--5-5-|


  E  S S E  S S E  S S E  S S    E  S S E  S S E  S S E  S S  
------------------------------|------------------------------|
------------------------------|------------------------------|
--3--3-3-3--3-3-5--5-5-5--5-5-|--7--7-7-7--7-7-7--7-7-7--7-7-|
------------------------------|------------------------------|


  E  S S E  S S E  S S E  S S    E  S S E  S S E  S S E  S S  
------------------------------|------------------------------|
------------------------------|------------------------------|
--3--3-3-3--3-3-3--3-3-2--2-2-|--7--7-7-7--7-7-7--7-7-7--7-7-|
------------------------------|------------------------------|


  E  S S E  S S E  S S E  S S    E  S S E  S S E  S S E  S S  
------------------------------|------------------------------|
------------------------------|--7--7-7-7--7-7-7--7-7-7--7-7-|
--3--3-3-3--3-3-3--3-3-2--2-2-|------------------------------|
------------------------------|------------------------------|


  E  S S E  S S E  S S E  S S    E  S S E  S S E  S S E  S S  
------------------------------|------------------------------|
--3--3-3-3--3-3-3--3-3-2--2-2-|--7--7-7-7--7-7-7--7-7-7--7-7-|
------------------------------|------------------------------|
------------------------------|------------------------------|


  E  S S E  S S E  S S E  S S    E  S S E  S S E  S S E  S S  
------------------------------|------------------------------|
--3--3-3-3--3-3-3--3-3-2--2-2-|------------------------------|
------------------------------|--7--7-7-7--7-7-7--7-7-7--7-7-|
------------------------------|------------------------------|


  E  S S E  S S E  S S E  E     E  S S E  S S E  S S E  S S  
-----------------------------|------------------------------|
-----------------------------|------------------------------|
--7--7-7-7--7-7-7--7-7-5--5--|--3--3-3-3--3-3-3--3-3-3--3-3-|
-----------------------------|------------------------------|


  Q.     S S Q.     E     E  S S E  S S E  S S E  S S  
-----------------------|------------------------------|
-----------------------|------------------------------|
--2--------------------|--7--7-7-7--7-7-7--7-7-7--7-7-|
---------5-3-2------0--|------------------------------|


  E  S S E  S S E  S S E  S S    E  S S E  S S E  S S E  S S  
------------------------------|------------------------------|
------------------------------|------------------------------|
--7--7-7-7--7-7-7--7-7-7--7-7-|--3--3-3-3--3-3-3--3-3-3--3-3-|
------------------------------|------------------------------|


  Q.     S S Q.     E     E  S S E  S S E  S S E  S S  
-----------------------|------------------------------|
-----------------------|------------------------------|
--2--------------------|--7--7-7-7--7-7-7--7-7-7--7-7-|
---------5-3-2------0--|------------------------------|


  E  S S E  S S E  S S E  S S    E  S S E  S S E  S S E  S S  
------------------------------|------------------------------|
------------------------------|------------------------------|
--7--7-7-7--7-7-7--7-7-7--7-7-|--3--3-3-3--3-3-3--3-3-3--3-3-|
------------------------------|------------------------------|


  E  S S E  S S E  S S E  S S    E  S S E  S S E  S S E  S S  
------------------------------|------------------------------|
------------------------------|------------------------------|
--2--2-2-2--------------------|--7--7-7-7--7-7-7--7-7-7--7-7-|
------------5-3-2--2-2-2--0-0-|------------------------------|


  E  S S E  S S E  S S E  S S    E  S S E  S S E  S S E  S S  
------------------------------|------------------------------|
------------------------------|------------------------------|
--7--7-7-7--7-7-7--7-7-7--7-7-|--3--3-3-3--3-3-3--3-3-3--3-3-|
------------------------------|------------------------------|


  E  S S E  S S E  S S E  S S    E  S S E  S S E  S S E  S S  
------------------------------|------------------------------|
------------------------------|------------------------------|
--2--2-2-2--------------------|--7--7-7-7--7-7-7--7-7-7--7-7-|
------------5-3-2--2-2-2--0-0-|------------------------------|


  E  S S E  S S E  S S E  S S    E  S S E  S S E  S S E  S S  
------------------------------|------------------------------|
------------------------------|------------------------------|
--5--5-5-5--5-5-5--5-5-5--5-5-|------------------------------|
------------------------------|--5--5-5-5--5-5-5--5-5-5--5-5-|


  E  S S E  S S E  S S E  S S    E  S S E  S S E  S S E  S S  
------------------------------|------------------------------|
------------------------------|------------------------------|
--3--3-3-3--3-3-5--5-5-5--5-5-|--7--7-7-7--7-7-7--7-7-7--7-7-|
------------------------------|------------------------------|


  E  S S E  S S E  S S E  S S    E  S S E  S S E  S S E  S S  
------------------------------|------------------------------|
------------------------------|------------------------------|
--5--5-5-5--5-5-5--5-5-5--5-5-|------------------------------|
------------------------------|--5--5-5-5--5-5-5--5-5-5--5-5-|


  E  S S E  S S E  S S E  S S    E  E  S S S S S S S S S S  
------------------------------|----------------------------|
------------------------------|----------------------------|
--3--3-3-3--3-3-5--5-5-5--5-5-|----------------------------|
------------------------------|--7--7--7-7-7-7---7---7---7-|


  E  E  S S S S S S S S S S    E  E  S S S S S S S S S S  
----------------------------|----------------------------|
----------------------------|----------------------------|
----------------------------|----------------------------|
--7--7--7-7-7-7---7---7---7-|--7--7--7-7-7-7---7---7---7-|


  E  E  S S S S S S S S S S    E  E  S S S S S S S S S S  
----------------------------|----------------------------|
----------------------------|----------------------------|
----------------------------|----------------------------|
--7--7--7-7-7-7---7---7---7-|--7--7--7-7-7-7---7---7---7-|


  E  E  S S S S S S S S S S    E  E  S S S S S S S S S S  
----------------------------|----------------------------|
----------------------------|----------------------------|
----------------------------|----------------------------|
--7--7--7-7-7-7---7---7---7-|--7--7--7-7-7-7---7---7---7-|


  E  E  S S S S S S S S S S    E  E  S S S S S S S S S S  
----------------------------|----------------------------|
----------------------------|----------------------------|
----------------------------|----------------------------|
--7--7--7-7-7-7---7---7---7-|--5--5--5-5-5-5---5---5---5-|


  E  E  S S S S S S S S S S    E  E  S S S S S S S S S S  
----------------------------|----------------------------|
----------------------------|----------------------------|
----------------------------|----------------------------|
--5--5--5-5-5-5---5---5---5-|--5--5--5-5-5-5---5---5---5-|


  E  E  S S S S S S S S S S    E  E  S S S S S S S S S S  
----------------------------|----------------------------|
----------------------------|----------------------------|
----------------------------|----------------------------|
--5--5--5-5-5-5---5---5---5-|--7--7--7-7-7-7---7---7---7-|


  E  E  S S S S S S S S S S    E  E  S S S S S S S S S S  
----------------------------|----------------------------|
----------------------------|----------------------------|
----------------------------|----------------------------|
--7--7--7-7-7-7---7---7---7-|--7--7--7-7-7-7---7---7---7-|


  E  E  S S S S S S S S S S    E  E  S S S S S S S S S S  
----------------------------|----------------------------|
----------------------------|----------------------------|
----------------------------|----------------------------|
--7--7--7-7-7-7---7---7---7-|--9--9--9-9-9-9---9---9---9-|


  E  E  S S S S S S S S S S    E  E  S S S S S S S S S S  
----------------------------|----------------------------|
----------------------------|----------------------------|
----------------------------|----------------------------|
--9--9--9-9-9-9---9---9---9-|--9--9--9-9-9-9---9---9---9-|


  E  E  S S S S S S S S S S     E   E   S  S S  S S  S S  S S  S  
----------------------------|------------------------------------|
----------------------------|------------------------------------|
----------------------------|------------------------------------|
--9--9--9-9-9-9---9---9---9-|--11--11--11-11-1-11---11---11---11-|


   E   E   S  S S  S S  S S  S S  S     E   E   S  S S  S S  S S  S S  S  
------------------------------------|------------------------------------|
------------------------------------|------------------------------------|
------------------------------------|------------------------------------|
--11--11--11-11-1-11---11---11---11-|--11--11--11-11-1-11---11---11---11-|


  S S S S S S S S  S  S  S  S    W                Q    E     W                 
--4-----6-----8------10-------|---------------------------|-------------------|
----5-----7-----9-------11----|---------------------------|-------------------|
------6-----8-----10-------13-|------------------------2--|-------------------|
------------------------------|--0----------------L-------|--0----------------|


  H.           E  E     W                   W                 
---------------------|-------------------|-------------------|
---------------------|-------------------|-------------------|
------------------2--|-------------------|-------------------|
--L------------L-----|--0----------------|--L----------------|


  W                   W                 
-------------------|-------------------|
-------------------|-------------------|
--3----------------|--5----------------|
-------------------|-------------------|


  S S S S S S S S S S S S S S S S S S S S S S S S  
--------------------------------------------------|
--------------------------------------------------|
--0-0-0-0-0-0-0-0-0-0-0-0-0-0-0-0-0-0-0-0-0-0-0-0-|
--------------------------------------------------|


  S S S S S S S S S S S S S S S S S S S S S S S S  
--------------------------------------------------|
--------------------------------------------------|
--0-0-0-0-0-0-0-0-0-0-0-0-0-0-0-0-0-0-0-0-0-0-0-0-|
--------------------------------------------------|


  S S S S S S S S S S S S S S S S S S S S S S S S  
--------------------------------------------------|
--------------------------------------------------|
--0-0-0-0-0-0-0-0-0-0-0-0-0-0-0-0-0-0-0-0-0-0-0-0-|
--------------------------------------------------|


  S S S S S S S S S S S S S S S S S S S S S S S S  
--------------------------------------------------|
--------------------------------------------------|
--3-3-3-3-3-3-3-3-3-3-3-3-3-3-3-3-3-3-3-3-3-3-3-3-|
--------------------------------------------------|


  S S S S S S S S S S S S S S S S S S S S S S S S  
--------------------------------------------------|
--------------------------------------------------|
--------------------------------------------------|
--3-3-3-3-3-3-3-3-3-3-3-3-3-3-3-3-3-3-3-3-3-3-3-3-|


  S S S S S S S S S S S S S S S S S S S S S S S S  
--------------------------------------------------|
--------------------------------------------------|
--1-1-1-1-1-1-1-1-1-1-1-1-------------------------|
--------------------------1-1-1-1-1-1-1-1-1-1-1-1-|


  S S S S S S S S S S S S S S S S S S S S S S S S  
--------------------------------------------------|
--------------------------------------------------|
--0-0-0-0-0-0-0-0-0-0-0-0-0-0-0-0-0-0-0-0-0-0-0-0-|
--------------------------------------------------|


  S S S S S S S S S S S S S S S S S S S S S S S S  
--------------------------------------------------|
--------------------------------------------------|
--3-3-3-3-3-3-3-3-3-3-3-3-3-3-3-3-3-3-3-3-3-3-3-3-|
--------------------------------------------------|


  S S S S S S S S S S S S S S S S S S S S S S S S  
--------------------------------------------------|
--------------------------------------------------|
--------------------------------------------------|
--3-3-3-3-3-3-3-3-3-3-3-3-3-3-3-3-3-3-3-3-3-3-3-3-|


  S S S S S S S S S S S S S S S S S S S S S S S S  
--------------------------------------------------|
--------------------------------------------------|
--1-1-1-1-1-1-1-1-1-1-1-1-------------------------|
--------------------------1-1-1-1-1-1-1-1-1-1-1-1-|


  S S S S S S S S S S S S S S S S S S S S S S S S  
--------------------------------------------------|
--------------------------------------------------|
--0-0-0-0-0-0-0-0-0-0-0-0-0-0-0-0-0-0-0-0-0-0-0-0-|
--------------------------------------------------|


  S S S S S S S S S S S S S S S S S S S S S S S S  
--------------------------------------------------|
--------------------------------------------------|
--3-3-3-3-3-3-3-3-3-3-3-3-3-3-3-3-3-3-3-3-3-3-3-3-|
--------------------------------------------------|


  S S S S S S S S S S S S S S S S S S S S S S S S  
--------------------------------------------------|
--------------------------------------------------|
--------------------------------------------------|
--3-3-3-3-3-3-3-3-3-3-3-3-3-3-3-3-3-3-3-3-3-3-3-3-|


  S S S S S S S S S S S S S S S S S S S S S S S S  
--------------------------------------------------|
--------------------------------------------------|
--1-1-1-1-1-1-1-1-1-1-1-1-------------------------|
--------------------------1-1-1-1-1-1-1-1-1-1-1-1-|


  S S S S S S S S S S S S S S S S S S S S S S S S  
--------------------------------------------------|
--------------------------------------------------|
--0-0-0-0-0-0-0-0-0-0-0-0-0-0-0-0-0-0-0-0-0-0-0-0-|
--------------------------------------------------|


  S S S S S S S S S S S S S S S S S S S S S S S S  
--------------------------------------------------|
--------------------------------------------------|
--3-3-3-3-3-3-3-3-3-3-3-3-3-3-3-3-3-3-3-3-3-3-3-3-|
--------------------------------------------------|


  S S S S S S S S S S S S S S S S S S S S S S S S  
--------------------------------------------------|
--------------------------------------------------|
--------------------------------------------------|
--3-3-3-3-3-3-3-3-3-3-3-3-3-3-3-3-3-3-3-3-3-3-3-3-|


  S S S S S S S S S S S S S S S S S S S S S S S S  
--------------------------------------------------|
--------------------------------------------------|
--1-1-1-1-1-1-1-1-1-1-1-1-------------------------|
--------------------------1-1-1-1-1-1-1-1-1-1-1-1-|


  S S S S S S S S S S S S S S S S S S S S S S S S  
--------------------------------------------------|
--------------------------------------------------|
--0-0-0-0-0-0-0-0-0-0-0-0-0-0-0-0-0-0-0-0-0-0-0-0-|
--------------------------------------------------|


  S S S S S S S S S S S S S S S S S S S S S S S S  
--------------------------------------------------|
--------------------------------------------------|
--3-3-3-3-3-3-3-3-3-3-3-3-3-3-3-3-3-3-3-3-3-3-3-3-|
--------------------------------------------------|


  S S S S S S S S S S S S S S S S S S S S S S S S  
--------------------------------------------------|
--------------------------------------------------|
--------------------------------------------------|
--3-3-3-3-3-3-3-3-3-3-3-3-3-3-3-3-3-3-3-3-3-3-3-3-|


  S S S S S S S S S S S S S S S S S S S S S S S S       
--------------------------------------------------|----|
--------------------------------------------------|----|
--1-1-1-1-1-1-1-1-1-1-1-1-------------------------|----|
--------------------------1-1-1-1-1-1-1-1-1-1-1-1-|----|


  S S S S S S S S S S S S S S S S S S S S S S S S  
--------------------------------------------------|
--------------------------------------------------|
--0-0-0-0-0-0-0-0-0-0-0-0-0-0-0-0-0-0-0-0-0-0-0-0-|
--------------------------------------------------|


  S S S S S S S S S S S S S S S S S S S S S S S S  
--------------------------------------------------|
--------------------------------------------------|
--3-3-3-3-3-3-3-3-3-3-3-3-3-3-3-3-3-3-3-3-3-3-3-3-|
--------------------------------------------------|


  S S S S S S S S S S S S S S S S S S S S S S S S  
--------------------------------------------------|
--------------------------------------------------|
--------------------------------------------------|
--3-3-3-3-3-3-3-3-3-3-3-3-3-3-3-3-3-3-3-3-3-3-3-3-|


  S S S S S S S S S S S S S S S S S S S S S S S S       
--------------------------------------------------|----|
--------------------------------------------------|----|
--1-1-1-1-1-1-1-1-1-1-1-1-------------------------|----|
--------------------------1-1-1-1-1-1-1-1-1-1-1-1-|----|


  S S S S S S S S S S S S S S S S S S S S S S S S  
--------------------------------------------------|
--------------------------------------------------|
--0-0-0-0-0-0-0-0-0-0-0-0-0-0-0-0-0-0-0-0-0-0-0-0-|
--------------------------------------------------|


  S S S S S S S S S S S S S S S S S S S S S S S S  
--------------------------------------------------|
--------------------------------------------------|
--3-3-3-3-3-3-3-3-3-3-3-3-3-3-3-3-3-3-3-3-3-3-3-3-|
--------------------------------------------------|


  S S S S S S S S S S S S S S S S S S S S S S S S  
--------------------------------------------------|
--------------------------------------------------|
--------------------------------------------------|
--3-3-3-3-3-3-3-3-3-3-3-3-3-3-3-3-3-3-3-3-3-3-3-3-|


  S S S S S S S S S S S S S S S S S S S S S S S S  
--------------------------------------------------|
--------------------------------------------------|
--1-1-1-1-1-1-1-1-1-1-1-1-------------------------|
--------------------------1-1-1-1-1-1-1-1-1-1-1-1-|


  S S S S S S Q.     S S S S S S Q.      
----------------------------------------|
----------------------------------------|
----------------------------------------|
--0-0-0-0-0-0-0------0-0-0-0-0-0-0------|


  S S S S S S Q.     S S S S S S Q.      
----------------------------------------|
----------------------------------------|
--3-3-3-3-3-3-3------3-3-3-3-3-3-3------|
----------------------------------------|


  S S S S S S Q.     S S S S S S Q.      
----------------------------------------|
----------------------------------------|
----------------------------------------|
--3-3-3-3-3-3-3------3-3-3-3-3-3-3------|


  S S S S S S Q.     S S S S S S Q    E   
-----------------------------------------|
--0-0-0-0-0-0-0-----------------------0--|
---------------------3-3-3-3-3-3-3-------|
-----------------------------------------|


  S S S S S S Q.     S S S S S S Q.      
----------------------------------------|
----------------------------------------|
----------------------------------------|
--0-0-0-0-0-0-0------0-0-0-0-0-0-0------|


  S S S S S S Q.     S S S S S S Q.      
----------------------------------------|
----------------------------------------|
--3-3-3-3-3-3-3------3-3-3-3-3-3-3------|
----------------------------------------|


  S S S S S S Q.     S S S S S S Q.      
----------------------------------------|
----------------------------------------|
----------------------------------------|
--3-3-3-3-3-3-3------3-3-3-3-3-3-3------|


  S S S S S S Q.     S S S S S S Q    E   
-----------------------------------------|
--0-0-0-0-0-0-0-----------------------0--|
---------------------3-3-3-3-3-3-3-------|
-----------------------------------------|


  S S S S S S Q.     S S S S S S Q.      
----------------------------------------|
----------------------------------------|
----------------------------------------|
--0-0-0-0-0-0-0------0-0-0-0-0-0-0------|


  S S S S S S Q.     S S S S S S Q.      
----------------------------------------|
----------------------------------------|
--3-3-3-3-3-3-3------3-3-3-3-3-3-3------|
----------------------------------------|


  S S S S S S Q.     S S S S S S Q.      
----------------------------------------|
----------------------------------------|
----------------------------------------|
--3-3-3-3-3-3-3------3-3-3-3-3-3-3------|


  S S S S S S Q.     S S S S S S Q    E     E  S S E  S S E  S S E  E   
-----------------------------------------|-----------------------------|
--0-0-0-0-0-0-0-----------------------0--|--------------------------0--|
---------------------3-3-3-3-3-3-3-------|-----------------------------|
-----------------------------------------|--0--0-0-0--0-0-0--0-0-0-----|


  E  S S E  S S E  S S E  E     E  S S E  S S E  S S E  E   
-----------------------------|-----------------------------|
-----------------------------|--0--0-0-0--0-0-0--0-0-0--0--|
-----------------------------|-----------------------------|
--0--0-0-0--0-0-0--0-0-0--0--|-----------------------------|


  E  S S E  S S E  S S E  E     E  S S E  S S E  S S E  E   
-----------------------------|-----------------------------|
--------------------------0--|--------------------------0--|
--2--2-2-2--2-2-2--2-2-3-----|-----------------------------|
-----------------------------|--0--0-0-0--0-0-0--0-0-0-----|


  E  S S E  S S E  S S E  E     E  S S E  S S E  S S E  E   
-----------------------------|-----------------------------|
-----------------------------|--0--0-0-0--0-0-0--0-0-0--0--|
-----------------------------|-----------------------------|
--0--0-0-0--0-0-0--0-0-0--0--|-----------------------------|


  E  S S E  S S E  S S E  E     E  S S E  S S E  S S E  S S  
-----------------------------|-----------------------0--0-0-|
--------------------------0--|--2--2-2-2--2-2-2--2-2--------|
--2--2-2-2--2-2-2--2-2-3-----|------------------------------|
-----------------------------|------------------------------|


  E  S S E  S S E  S S E  S S    E  S S E  S S E  S S E  S S  
-----------------------0--0-0-|-----------------------0--0-0-|
--0--0-0-0--0-0-0--0-0--------|--2--2-2-2--2-2-2--2-2--------|
------------------------------|------------------------------|
------------------------------|------------------------------|


  E  S S E  S S E  S S E  S S    E  S S E  S S E  S S E  E   
-----------------------0--0-0-|-----------------------------|
--0--0-0-0--0-0-0--0-0--------|--------------------------0--|
------------------------------|-----------------------------|
------------------------------|--0--0-0-0--0-0-0--0-0-0-----|


  E  S S E  S S E  S S E  E     E  S S E  S S E  S S E  E   
-----------------------------|-----------------------------|
-----------------------------|--0--0-0-0--0-0-0--0-0-0--0--|
-----------------------------|-----------------------------|
--0--0-0-0--0-0-0--0-0-0--0--|-----------------------------|


  E  S S E  S S E  S S E  E     E  S S E  S S E  S S E  S S  
-----------------------------|------------------------------|
--------------------------0--|------------------------------|
--2--2-2-2--2-2-2--2-2-3-----|--7--7-7-7--7-7-7--7-7-7--7-7-|
-----------------------------|------------------------------|


  E  S S E  S S E  S S E  S S    E  S S E  S S E  S S E  S S  
------------------------------|------------------------------|
------------------------------|------------------------------|
--5--5-5-5--5-5-5--5-5-5--5-5-|------------------------------|
------------------------------|--5--5-5-5--5-5-5--5-5-5--5-5-|


  E  S S E  S S E  S S E  S S    E  S S E  S S E  S S E  S S  
------------------------------|------------------------------|
------------------------------|------------------------------|
--3--3-3-3--3-3-5--5-5-5--5-5-|--7--7-7-7--7-7-7--7-7-7--7-7-|
------------------------------|------------------------------|


  E  S S E  S S E  S S E  S S    E  S S E  S S E  S S E  S S  
------------------------------|------------------------------|
------------------------------|------------------------------|
--5--5-5-5--5-5-5--5-5-5--5-5-|------------------------------|
------------------------------|--5--5-5-5--5-5-5--5-5-5--5-5-|


  E  S S E  S S E  S S E  S S    E  S S E  S S E  S S E  S S  
------------------------------|------------------------------|
------------------------------|------------------------------|
--3--3-3-3--3-3-5--5-5-5--5-5-|--7--7-7-7--7-7-7--7-7-7--7-7-|
------------------------------|------------------------------|


  E  S S E  S S E  S S E  S S    E  S S E  S S E  S S E  S S  
------------------------------|------------------------------|
------------------------------|------------------------------|
--7--7-7-7--7-7-7--7-7-7--7-7-|--3--3-3-3--3-3-3--3-3-3--3-3-|
------------------------------|------------------------------|


  E  S S E  S S E  S S E  S S    E  S S E  S S E  S S E  S S  
------------------------------|------------------------------|
------------------------------|------------------------------|
--7--7-7-7--5-----------------|--7--7-7-7--7-7-7--7-7-7--7-7-|
--------------8-7--7-7-7--7-7-|------------------------------|


  E  S S E  S S E  S S E  S S    E  S S E  S S E  S S E  S S  
------------------------------|------------------------------|
------------------------------|------------------------------|
--7--7-7-7--7-7-7--7-7-7--7-7-|--3--3-3-3--3-3-3--3-3-3--3-3-|
------------------------------|------------------------------|


  E  S S E  S S E  S S E  S S    E  S S E  S S H          
------------------------------|-------------------------||
------------------------------|-------------------------||
--7--7-7-7--5-----------------|--2--2-2-2--2-2----------||
--------------8-7--7-7-7--7-7-|----------------0--------||
Composição de Steve Harris
Colaboração e revisão:
  • Bruno
2.924 exibições

0 comentários

Ver todos os comentários

Conseguiu tocar?

0 Tocaram 0 Ainda não

Grave um vídeo tocando Alexander the Great e nos envie!

00:00 / 00:00
Outros vídeos desta música
Repetir Qualidade Automático
Outros vídeos desta música
00:00 / 00:00
Automático

Cifra Club Pro

Aproveite o Cifra Club com benefícios exclusivos e sem anúncios
Cifra Club Pro
Aproveite o Cifra Club com benefícios exclusivos e sem anúncios
OK