Enviar cifraEntrar

Blood Brothers

Iron Maiden

Cifra: Principal
exibições 200.474
Tom: G
Intro:

E|---------------------------------|
B|---------------------------------|
G|---------------------------------|
D|-------------------5---5----7----|
A|---2---2----5----3---3----5---5--|
E|-0---0----3---3------------------|  3 vezes.


E|---------------------------------|
B|---------------------------------|
G|---------------------------------|
D|-------------------7---7----5----|
A|---2---2----5----5---5----3---3--|
E|-0---0----3---3------------------|  1 vez.


 Interlúdio:


E|----------8----7----7------------------|
B|-----------------10------10-8-10--8--7-|
G|-9----7-9------------------------------|
D|---------------------------------------|
A|---------------------------------------|
E|---------------------------------------|


E|----------8----7----7------------------|
B|-----------------10------10-8-7--8--7--|
G|-9----7-9------------------------------|
D|---------------------------------------|
A|---------------------------------------|
E|---------------------------------------|



 Base:


E|------------------------------------------|
B|------------------------------------------|
G|------------------------------------------|
D|-2-2--2-2--------------5--5-5-5--7-7-7----|
A|-2-2--2-2---5--5-5-5---3--3-3-3--5-5-5----|
E|-0-0--0-0---3--3-3-3----------------------|x4



 Solo 1:


E|------------------------------------12--14--15--15b17--15--14--12h14--|
B|--10/12------12--13--15b17--15b17~------------------------------------|
G|---------14-----------------------------------------------------------|
D|----------------------------------------------------------------------|
A|----------------------------------------------------------------------|
E|----------------------------------------------------------------------|


E|--12h14p12------12-----------------------------------------------------|
B|------------15------15^17--15--13--15--13--12--13--12------12----------|
G|-------------------------------------------------------14------14--12--|
D|-----------------------------------------------------------------------|
A|-----------------------------------------------------------------------|
E|-----------------------------------------------------------------------|


E|------------------------------------------------------------------------|
B|--15~--12--15--12-------------------------------------------------------|
G|-------------------14--12h14p12-------------------12--14--14b--14--14b--|
D|---------------------------------14p12h14--12h14------------------------|
A|------------------------------------------------------------------------|
E|------------------------------------------------------------------------|


E|----------------------------------------------------------------|
B|--12-12h15p12--12--12-------------------------------------------|
G|-----------------------15--14p12------12-------14b--12------12--|
D|----------------------------------14--------------------14------|
A|----------------------------------------------------------------|
E|----------------------------------------------------------------|


E|------------------------------------------------------------12--14--15--15b17--|
B|----------------------------------12h13p12------12--13--15---------------------|
G|----------------------11--12--14------------14---------------------------------|
D|----------11--12--14-----------------------------------------------------------|
A|--12--14-----------------------------------------------------------------------|
E|-------------------------------------------------------------------------------|



 Solo 2:


E|-----------------------------------|
B|----12--10--12~---13--12---10------|
G|-9-----------------------------12--|
D|-----------------------------------|
A|-----------------------------------|
E|-----------------------------------|x8



 Solo 3:


E|--------------7------7--10---7-----7--------------7--|
B|---7-8-7-8-10----10------------10------10-8--10------|
G|-9---------------------------------------------------|
D|-----------------------------------------------------|
A|-----------------------------------------------------|
E|-----------------------------------------------------|


E|-------7--10---7-----7-------------------------7--|
B|---10------------10------10-8--10------8--10------|
G|--------------------------------------------------|
D|--------------------------------------------------|
A|--------------------------------------------------|
E|--------------------------------------------------|


E|----------------------------------------------------|
B|--10-8--10---8-7------------7--8---7----7-----------|
G|------------------9------9-----------9------9-7-9---|
D|--------------------------------------------------9-|
A|----------------------------------------------------|
E|----------------------------------------------------|


E|----------------------------------------------|
B|---------7--8---7----7-------------------7--8-|
G|------9-----------9------9--7--9------9-------|
D|----------------------------------------------|
A|----------------------------------------------|
E|----------------------------------------------|


E|-----------------------|
B|--7------------7-------|
G|-----9--7--9------9----|
D|-----------------------|
A|-----------------------|
E|-----------------------|x2



 Solo 4:


E|--------------------------12--14--14b15---14-12-------12-14--12-17b19--|
B|-15b17-15b17-15b17-15b17-------------------------15--------------------|
G|-----------------------------------------------------------------------|
D|-----------------------------------------------------------------------|
A|-----------------------------------------------------------------------|
E|-----------------------------------------------------------------------|


E|--17b19---17-15--14---15-14----------12--14--14b15---14-12------|
B|---------------------------15~------------------------------15--|
G|----------------------------------------------------------------|
D|----------------------------------------------------------------|
A|----------------------------------------------------------------|
E|----------------------------------------------------------------|


E|-12-14--12------------------------------10-12-10-10/12-12---19--19-17-15-14-15-14-15-|
B|-------------12-10-12-10-12-10----10-12----------------------------------------------|
G|-------------------------------12----------------------------------------------------|
D|-------------------------------------------------------------------------------------|
A|-------------------------------------------------------------------------------------|
E|-------------------------------------------------------------------------------------|


E|-14---14-15-17-15-14----14-15-14----19-17-15-14-15-14----14-12~~----12/0--------|
B|----15---------------15----------15-------------------15------------------------|
G|--------------------------------------------------------------------------------|
D|--------------------------------------------------------------------------------|
A|--------------------------------------------------------------------------------|
E|--------------------------------------------------------------------------------|




 Refrão:


E|------------------------------------------|
B|------------------------------------------|
G|------------5-5-5-5-------------7-7-7-7---|
D|--2-2-2-2---5-5-5-5---5-5-5-5---7-7-7-7---|
A|--2-2-2-2---3-3-3-3---5-5-5-5---5-5-5-5---|
E|--0-0-0-0-------------3-3-3-3-------------|4x



 Dedilhado:


E|------------------------------------------------------|
B|------------------------------------------------------|
G|------9---9-----9---9--------14----14-------12----12--|
D|----9---9-----9---9-------14----14-------12----12-----|
A|--7---------7----------12-------------10--------------|
E|------------------------------------------------------| 3 vezes.


E|-------------------------------------------|
B|-------------------------------------------|
G|------5---5-----7---7-----5---5-----5---5--|
D|----5---5-----7---7-----5---5-----5---5----|
A|--3---------5---------3---------3----------|
E|-------------------------------------------|


E|-------------------------------------------|
B|-------------------------------------------|
G|------9---9-----9---9-----9---9-----9---9--|
D|----9---9-----9---9-----9---9-----9---9----|
A|--7---------7---------7---------7----------|
E|-------------------------------------------|



Letra:

Intro
Interlúdio

(E5 G5 C5 D5)
And if you're taking a walk through the garden of life
What do you think you'd expect you would see?
Just like a mirror reflecting the moves of your life
And in the river reflections of me
Just for a second a glimpse of my father I see
And in a movement he beckons to me
And in a moment the memories are all that remain
And all the wounds are reopening again

Refrão:
We're blood brothers x4

(E5 G5 C5 D5)
And as you look all around at the world in dismay
What do you see, do you think we have learned
Not if you're taking a look at the war torn affraid
Out in the streets where the babies are burned

[Refrão]
[Iterlúdio]

(E5 G5 C5 D5)
There are times when I feel I'm afraid for the world
There are times I'm ashamed of us all
When you're floating on all the emotion you feel
And reflecting the good and the bad.
Will we ever know what the answer to life really is?
Can you really tell me what life is?
Maybe all the things that you know that are precious to you
Could be swept away by fate's own han

[Refrão]
[Iterlúdio] - (distorcido)
[Solo 1]
[Solo 2]
[Dedilhado]
[Solo 3]

[Solo 3]
When you think that we've used all our chances
And the chance to make everything right,
Keep on making the same old mistakes
Makes untipping the balance so easy
When we're living our lives on the edge
Say a prayer on the book of the dead

[Solo 3] - (distorcido)
[Solo 4]
[Refrão]

[Final]
And if you're taking a walk through the garden of life


 Final:


E|----------8----7----7------------------|
B|-----------------10------10-8-10--8--7-|
G|-9----7-9------------------------------|
D|---------------------------------------|
A|---------------------------------------|
E|---------------------------------------|


E|----------8----7----7------------------|
B|-----------------10------10-8-7--8--7--|
G|-9----7-9------------------------------|
D|---------------------------------------|
A|---------------------------------------|
E|---------------------------------------|


E|----------8----7----7------------------|
B|-----------------10------10-8-10--8--7-|
G|-9----7-9------------------------------|
D|---------------------------------------|
A|---------------------------------------|
E|---------------------------------------|


E|----------8----7----7-------------------------|
B|-----------------10------10-8-7--8--7---------|
G|-9----7-9-------------------------------7h9~--|
D|----------------------------------------------|
A|----------------------------------------------|
E|----------------------------------------------|
  • 1
  • 2
  • 3
  • 4
  • 5
  • 6
  • 7
  • 8
  • 9
  • 10
  • 11
  • 12
    Acordes para:
      Composição: Steve HarrisColaboração e revisão:

      0 comentários

        mostrar mais comentários

        Conseguiu tocar?

        36tocaram0ainda não

        Grave um vídeo tocando Blood Brothers e mande pra gente!

        00:00 / 00:00
        outros vídeos desta música
        repetirqualidadeautomática
        • automática
        Outro vídeos desta música
          00:00 / 00:00
          automática
          • automática
          fecharplay/pause subir/descer velocidade
            acordes
            fechar
            OK
            Feedback