Cifra Club

Blood Brothers

Iron Maiden

Cifra: Versão 6 (violão e guitarra)
Tom: G
x2
e|--------8-7----7---------------------8-7----7------------|
B|------------10---10-8-10-8-7-------------10---10-8-7-8-7-|
G|-9--7-9-----------------------9--7-9---------------------|
D|---------------------------------------------------------|
A|---------------------------------------------------------|
E|---------------------------------------------------------|

   " And if you're taking a walk... "
   guitar 1                                               x8
e|--------------------------------------------------------|
B|--------------------------------------------------------|
G|-----9---9--------12--12--------5---5--------7---7------|
D|---9---9---9----12--12--12----5---5---5----7---7---7----|
A|-7-----------10-------------3------------5--------------|
E|--------------------------------------------------------|
|guitar 2 ( enters after 4th time )
e|--------------------------------------------------------|
B|--------------------------------------------------------|
G|--------------------------------------------------------|
D|-9--9---9-9--12--12--12-12--5--5---5-5---7--7---7-7-----|
A|-7--7---7-7--10--10--10-10--3--3---3-3---5--5---5-5-----|
E|--------------------------------------------------------|

     E5 C5 G5 D5   x4

            E5            G5        C5           D5
     There are times when I feel I'm afraid of the world
               E5        G5            D5
     There are times I'm ashamed of us all  etc.

Solo:   E5 G5 C5 D5   x4

Interlude:

Guitarra 1                                               x4
e|---------------------------------------------------------|
B|----12----12----13-12------------12----12----13-12-------|
G|-------14-------------14-12---------14-------------14-12-|
D|-14---------------------------14-------------------------|
A|---------------------------------------------------------|
E|---------------------------------------------------------|

| Guitarra 2

e|---------------------------------------------------------|
B|---------------------------------------------------------|
G|-----4-----4-----5--4-------------4-----4-----5--4-------|
D|--------7--------------7--5----------7--------------7--5-|
A|--7----------------------------7-------------------------|
E|---------------------------------------------------------|

| Guitarra 3

e|---------------------------------------------------------|
B|---------------------------------------------------------|
G|---------------------------------------------------------|
D|-9-------------------4---------5-----------7-------------|
A|-7-------------------2---------3-----------5-------------|
E|-0-------------------------------------------------------|

              x4                                               x3
e|-------------|---------------------------------------------------------------|
B|-------------|---------------------------------------------------------------|
G|-----9---9---|-----9---9-------9---9---------14----14----------12----12------|
D|---9---9---9-|---9---9---9---9---9---9----14----14----14----12----12----12---|
A|-7-----------|-7-----------7-----------12----------------10------------------|
E|-------------|---------------------------------------------------------------|
                  x2               x4
e|--------------------------|--------------|
B|--------------------------|--------------|
G|-----5---5-------7---7----|------9---9---|
D|---5---5---5---7---7---7--|----9---9---9-|
A|-3-----------5------------|--7-----------|
E|--------------------------|--------------|

   Guitarra 1
e|-------------------------------------------------------------------------------------------|
B|-------------------12----12-15-12----12---------12------12-15-12----12------------------12-|
G|----11-12-11-12-14----14----------14---14-12-14------14----------14----14-12-14---12-14----|
D|-14----------------------------------------------------------------------------------------|
A|-------------------------------------------------------------------------------------------|
E|-------------------------------------------------------------------------------------------|
  
e|-------------------------------------------------------------------------------------------|
B|-------------------------------------------------------------------------------------------|
G|-14-12-14-12-11---------11-12-11----11------------------11-12-11----11----------------11-12|
D|----------------14---14----------14----14-12-14------14----------14----14-12-14----14------|
A|------------------------------------------------14-----------------------------------------|
E|-------------------------------------------------------------------------------------------|
  
e|--------------------|
B|--------------------|
G|-11----------11-----|
D|----14-12-14----14--|
A|--------------------|
E|--------------------|

   Guitarra 2
e|----------------------------------------------------------------------------------------------------|
B|----------------------------------------------------------------------------------------------------|
G|----9--9-------9---9---------12---12---------14----14--------9---9-------9---9--------12----12-----2|
D|--9--9---9---9---9---9----12---12---12----14----14----14---9---9---9---9---9---9---12----12---12--2-|
A|7----------7-----------10--------------12----------------7-----------7-----------10-------------0---|
E|----------------------------------------------------------------------------------------------------|
                                                     x4           x4
e|-------------------------------|--------------------------------------------------|-------------|
B|-------------------------------|--------------------------------------------------|-------------|
G|---2-------7---7-------7---7---|-----5---5-------7---7-------9---9-------9---9----|-----9---9---|
D|-2---2---7---7---7---7---7---7-|---5---5---5---7---7---7---9---9---9---9---9---9--|---9---9---9-|
A|-------5-----------5-----------|-3-----------5-----------7-----------7------------|-7-----------|
E|-------------------------------|--------------------------------------------------|-------------|
exibições 1.292
Acordes para:
    Composição: Steve Harris Colaboração e revisão:
    • Lucas Calegar

    0 comentários

    mostrar mais comentários

    Conseguiu tocar?

    0 tocaram 0 ainda não

    Grave um vídeo tocando Blood Brothers e mande pra gente!

    00:00 / 00:00
    outros vídeos desta música
    repetir qualidade Automático
    Outros vídeos desta música
    00:00 / 00:00
    Automático
    OK