Cifra Club

Blood Brothers

Iron Maiden

Tab de baixo: Principal
Intro:
G|-------------------------------------------------------------------|
D|-----9-9-9---7------12-12-12----14---------------------------------|
A|---7-------5---5-10----------12----12------------------------------|
E|-------------------------------------------------------------------|
                                                                        
G|-------------------------------------------------------------------|
D|---9-9-9---7-----5-5-5---7-----------------------------------------|
A|-7-------5---5-3-------5-------------------------------------------|
E|---------------------------3-0-------------------------------------|
  
Verso 1:
G|---9---9---7---7---5---5---7---7-|
D|-----9---5---5-------5-------7---|
A|-7---------------3-------5-------| (6x)
E|---------------------------------|
 And if you're taking a walk through the garden of life...
 
G|-999-777-555-7-7-7-|
D|-999-555-555-7-7-7-|
A|-777-----333-5-5-5-| (4x)
E|-------------------|
  Just for a second a glimpse of my father I see...
                                                                  
Refrão:         
G|---------------------------7---|
D|---------------------------7---|
A|-7-7-7-7-3-3-3-3---------5-5-5-| (4x)
E|------------------3-3-3-3------|
 We're blood brothers...

Verso 2:
G|-999-777-555-7-7-7-|
D|-999-555-555-7-7-7-|
A|-777-----333-5-5-5-|  (4x)
E|-------------------|
 And as you look all around at the world in dismay

Solo:
G|-999-777-555-12-12-12-|
D|-999-777-555-12-12-12-|
A|-777-555-333-10-10-10-|
E|----------------------|
exibições 22.761
Composição: Steve Harris Colaboração e revisão:
  • Herickson Corrêa

0 comentários

mostrar mais comentários

Conseguiu tocar?

3 tocaram 0 ainda não

Grave um vídeo tocando Blood Brothers e mande pra gente!

00:00 / 00:00
outros vídeos desta música
repetir qualidade Automático
Outros vídeos desta música
00:00 / 00:00
Automático
OK