Cifra Club

Fear Of The Dark

Iron Maiden

Tab de baixo: Principal
Introdução:

Parte 1
G|-7--5--7--5--14--12--14--10--12-------------|
D|-7--5--7--5--14--12--14--10--12-------------|
A|-5--3--5--3--12--10--12--8---10-------------|
E|--------------------------------------------|

Prelúdio - 2x:

Parte 1
G|--------------------------------------------|
D|----7----7----7----7-----3---3---3---3------|
A|-5----5----5----5------1---1---1---1--------|
E|--------------------------------------------|

Parte 2
G|--------------------------------------------|
D|---5---5---5---5----3---3---5---5-----------|
A|-3---3---3---3----1---1---3---3-------------|
E|--------------------------------------------|

Parte 3
G|--------------------------------------------|
D|----7----7----7----7-----3---3---3---3------|
A|-5----5----5----5------1---1---1---1--------|
E|--------------------------------------------|

Parte 4
G|--------------------------------------------|
D|---5---5---5---5----5---5---5---5-----------|
A|-3---3---3---3----3---3---3---3-------------|
E|--------------------------------------------|

Primeira parte

I am a man who walks alone...

Parte 1
G|--------------------------------------------|
D|----7----7----7----7-----3---3---3---3------|
A|-5----5----5----5------1---1---1---1--------|
E|--------------------------------------------|

Parte 2
G|--------------------------------------------|
D|---5---5---5---5----3---3---5---5-----------|
A|-3---3---3---3----1---1---3---3-------------|
E|--------------------------------------------|

Parte 3
G|--------------------------------------------|
D|----7----7----7----7-----3---3---3---3------|
A|-5----5----5----5------1---1---1---1--------|
E|--------------------------------------------|

Parte 4
G|--------------------------------------------|
D|----5----5----5----5-----3---3---5---5------|
A|-3----3----3----3------1---1---3---3--------|
E|--------------------------------------------|

Parte 5
G|--------------------------------------------|
D|----7----7----7----7-----3---3---3---3------|
A|-5----5----5----5------1---1---1---1--------|
E|--------------------------------------------|

Parte 6
G|--------------------5---5---7---7-----------|
D|---5---5---5---5--3---3---5---5-------------|
A|-3---3---3---3------------------------------|
E|--------------------------------------------|

Parte 7
G|--------------------------------------------|
D|----7----7----7----7-----3---3---3---3------|
A|-5----5----5----5------1---1---1---1--------|
E|--------------------------------------------|

Parte 8
G|--------------------------------------------|
D|---5---5---5---5----5---5---5---5-----------|
A|-3---3---3---3----3---3---3---3-------------|
E|--------------------------------------------|

Refrão - 2x:

Fear of the dark, fear of the dark...

Parte 1
G|--------------------------------------------|
D|---3---3---3---3----5---5---5---5-----------|
A|-1---1---1---1----3---3---3---3-------------|
E|--------------------------------------------|

Parte 2
G|--------------------------------------------|
D|----7----7----7----7-----5---5---5---5------|
A|-5----5----5----5------3---3---3---3--------|
E|--------------------------------------------|

Parte 3
G|-----------------------5---5---7---7--------|
D|---3---3---3---3-----3---3---5---5----------|
A|-1---1---1---1------------------------------|
E|--------------------------------------------|

Parte 4 (tocar só na 1º Vez )
G|--------------------------------------------|
D|----7----7----7----7-----7---7---7---7------|
A|-5----5----5----5------5---5---5---5--------|
E|--------------------------------------------|

Parte 5(Tocar só na 2º vez no lugar da 4ºparte)
G|--------------------------------------------|
D|----7----7----7----7-----7---7---7----------|
A|-5----5----5----5------5---5---5------------|
E|--------------------------------------------|

Introdução 2 com banda - tocar 2x:

Parte 1
G|--------------------------------------------|
D|--------------------------------------------|
A|-5-5-----5-5-----5-5-----5-5----------------|
E|-----5-5-----5-5-----5-5-----5--------------|

Parte 2
G|--------------------------------------------|
D|--------------------------------------------|
A|-1-1-----1-1-----1-1-----1-1----------------|
E|-----1-1-----1-1-----1-1-----1--------------|

Parte 3
G|--------------------------------------------|
D|--------------------------------------------|
A|-3-3-----3-3-----3-3-----3-3----------------|
E|-----3-3-----3-3-----3-3-----3--------------|

Parte 4
G|--------------------------------------------|
D|-----------------------5-5------------------|
A|-5-5-----5-5--7-7-8-8------8-8-7------------|
E|-----5-5------------------------------------|

Segunda Parte - 2x:

Have you run your fingers down the wall...

Parte 1
G|-7------------------------------------------|
D|-7------------------------------------------|
A|-5--5-5-5-5-5-5--5--5-5-5-5-5-5-------------|
E|--------------------------------------------|

Parte 2
G|-3------------------------------------------|
D|-3------------------------------------------|
A|-1--1-1-1-1-1-1--1--1-1-1-1-1-1-------------|
E|--------------------------------------------|

Parte 3
G|-5------------------------------------------|
D|-5------------------------------------------|
A|-3--3-3-3-3-3-3--3--3-3-3-3-3-3-------------|
E|--------------------------------------------|

Parte 4
G|-7------------------------------------------|
D|-7------------------------------------------|
A|-5--5-5-5-5-5-5--5--5-5-5-5-5-5-------------|
E|--------------------------------------------|

Segundo Refrão:

Fear of the dark, fear of the dark...

Parte 1
G|-3-------------5--------------7-------------|
D|-3-------------5--------------7-------------|
A|-1-1-1-1-1-1-1-3-3-3-3-3-3-3--5-5-5-5-5-5-5-|
E|--------------------------------------------|

Parte 2
G|-5-------------3--------------5---7---------|
D|-5-------------3--------------3---5---------|
A|-3-3-3-3-3-3-3-1-1-1-1-1-1-1----------------|
E|--------------------------------------------|

Parte 3
G|-7------------------------------------------|
D|-7------------------------------------------|
A|-5--5-5-5-5-5-5--5--5-5-5-5-5-5-------------|
E|--------------------------------------------|

Parte 4
G|-3-------------5--------------7-------------|
D|-3-------------5--------------7-------------|
A|-1-1-1-1-1-1-1-3-3-3-3-3-3-3--5-5-5-5-5-5-5-|
E|--------------------------------------------|

Parte 5
G|-5-------------3--------------5---7---------|
D|-5-------------3--------------3---5---------|
A|-3-3-3-3-3-3-3-1-1-1-1-1-1-1----------------|
E|--------------------------------------------|

Parte 6
G|-7---------------7--------------------------|
D|-7---------------7--------------------------|
A|-5--5-5-5-5-5-5--5--5-5-5-5-5-5-------------|
E|--------------------------------------------|

Terceira Parte:

Have you ever been alone at night...

Parte 1
G|-7--------------3-------------5-------------|
D|-7--------------3-------------5-------------|
A|-5--5-5-5-5-5-5-1-1-1-1-1-1-1-3-5-5-5-5-5-5-|
E|--------------------------------------------|

Parte 2
G|-7-5-7-------------3------------------------|
D|-7-5-7-------------3------------------------|
A|-5-3-5-5-5-5-5-5-5-1-3-3-3-3-3-3------------|
E|--------------------------------------------|

Parte 3
G|-5------------------------------------------|
D|-5------------------------------------------|
A|-3-3-3-3-3-3-3--3--3-3-3-3-3-3--------------|
E|--------------------------------------------|

Parte 4
G|-7--------------3-------------5-------------|
D|-7--------------3-------------5-------------|
A|-5--5-5-5-5-5-5-1-1-1-1-1-1-1-3-5-5-5-5-5-5-|
E|--------------------------------------------|

Parte 5
G|-5-7-7-------------3------------------------|
D|-3-5-7-------------3------------------------|
A|-----5-5-5-5-5-5-5-1-1-1-1-1-1-1------------|
E|--------------------------------------------|

Parte 6
G|-5------------------------------------------|
D|-5------------------------------------------|
A|-3-3-3-3-3-3-3-3--3-3-3-3-3-3---------------|
E|--------------------------------------------|

Terceiro Refrão:

Fear of the dark, fear of the dark...

Parte 1
G|-3------------5-------------7---------------|
D|-3------------5-------------7---------------|
A|-1-1-1-1--1-1-3-3-3-3--3-3--5-5-5-5-5-5-----|
E|--------------------------------------------|

Parte 2
G|-5------------3------------5-7--------------|
D|-5------------3------------3-5--------------|
A|-3-3-3-3--3-3-1-1-1-1--1-1------------------|
E|--------------------------------------------|

Parte 3
G|-7------------------------------------------|
D|-7------------------------------------------|
A|-5-5-5-5--5-5-5--5-5-5--5-5-----------------|
E|--------------------------------------------|

Parte 4
G|-3------------5-------------7---------------|
D|-3------------5-------------7---------------|
A|-1-1-1-1--1-1-3-3-3-3--3-3--5-5-5-5-5-5-----|
E|--------------------------------------------|

Parte 5
G|-5------------3------------5-7--------------|
D|-5------------3------------3-5--------------|
A|-3-3-3-3--3-3-1-1-1-1--1-1------------------|
E|--------------------------------------------|

Parte 6
G|-7------------------------------------------|
D|-7------------------------------------------|
A|-5-5-5-5--5-5-5--5-5-5----------------------|
E|--------------------------------------------|

Introdução 3 - 2x:

Parte 1
G|--------------------------------------------|
D|--------------------------------------------|
A|-5-5-----5-5-----5-5-----5-5----------------|
E|-----5-5-----5-5-----5-5-----5--------------|

Parte 2
G|--------------------------------------------|
D|--------------------------------------------|
A|-1-1-----1-1-----1-1-----1-1----------------|
E|-----1-1-----1-1-----1-1-----1--------------|

Parte 3
G|--------------------------------------------|
D|--------------------------------------------|
A|-3-3-----3-3-----3-3-----3-3----------------|
E|-----3-3-----3-3-----3-3-----3--------------|

Parte 4
G|--------------------------------------------|
D|-----------------------5-5------------------|
A|-5-5-----5-5--7-7-8-8------8-8-7------------|
E|-----5-5------------------------------------|

Solo de Guitarra:

Parte 1 - 2x:
G|-7------------------------------------------|
D|-7------------------------------------------|
A|-5--5-5-5--5-5-5--5-5-5--5-5----------------|
E|--------------------------------------------|

G|-3------------------------------------------|
D|-3------------------------------------------|
A|-1--1-1-1--1-1-1--1-1-1--1-1----------------|
E|--------------------------------------------|

G|--------------3-5-7-------------------------|
D|--------------3-5-7-------------------------|
A|--------------1-3-5-5-5-5-5-5-5-5-5-5-5-5-5-|
E|-3-3-3--3-3-3-------------------------------|

Parte 2 - 2x:
G|-7------------------------------------------|
D|-7------------------------------------------|
A|-5--5-5-5--5-5-5--5-5-5--5-5----------------|
E|--------------------------------------------|

G|-3------------------------------------------|
D|-3------------------------------------------|
A|-1--1-1-1--1-1-1--1-1-1--1-1----------------|
E|--------------------------------------------|

G|------------------5--7----------------------|
D|------------------5--7----------------------|
A|------------------3--5-5-5-5--5-5-5--5-5-5--|
E|-3-3-3--3-3-3--3----------------------------|

G|--------------------------------------------|
D|--------------------------------------------|
A|-5-5-5-5-5-5--------------------------------|
E|--------------------------------------------|

Parte 3 - 2x:
G|-7------------------------------------------|
D|-7------------------------------------------|
A|-5-5-5-5--5-5-5--5-5-5--5-5-5--5-5-5--5-5-5-|
E|--------------------------------------------|

G|--------------------------------------------|
D|--------------------------------------------|
A|-5-5-5--5-5---------------------------------|
E|--------------------------------------------|

G|-3--------------5---------------------------|
D|-3--------------5---------------------------|
A|-1-1-1-1--1-1---3-3-3-3--3-3----------------|
E|--------------------------------------------|

G|-7------------------------------------------|
D|-7------------------------------------------|
A|-5-5-5-5--5-5-5--5-5-5--5-5-----------------|
E|--------------------------------------------|

Parte 4 - 2x:
G|-11-----------------------------------------|
D|-11-----------------------------------------|
A|-9--9-9-9--9-9-9--9-9-9--9-9-9--9-9-9-------|
E|--------------------------------------------|

G|--------------------------------------------|
D|--------------------------------------------|
A|-9-9-9--9-9-9--9-9--------------------------|
E|--------------------------------------------|

G|-7--------------9---------------------------|
D|-7--------------9---------------------------|
A|-5--5-5-5--5-5--7--7-7-7--7-7---------------|
E|--------------------------------------------|

G|-11-----------------------------------------|
D|-11-----------------------------------------|
A|-9--9-9-9--9-9-9-9-9-9----------------------|
E|--------------------------------------------|

Quarta parte - 3x:

Fear of the dark, fear of the dark...

Parte 1
G|-7------------------------------------------|
D|-7------------------------------------------|
A|-5--5-5-5--5-5-5--5-5-5--5-5-5--5-5-5-------|
E|--------------------------------------------|

G|--------------------------------------------|
D|--------------------------------------------|
A|-5-5-5--5-5-5--5-5--------------------------|
E|--------------------------------------------|

Parte 2
G|-3------------------------------------------|
D|-3------------------------------------------|
A|-1--1-1-1--1-1-1--1-1-1--1-1-1--1-1-1-------|
E|--------------------------------------------|

G|--------------------------------------------|
D|--------------------------------------------|
A|-1-1-1--1-1-1--1-1--------------------------|
E|--------------------------------------------|

Parte 3
G|--------------------------------------------|
D|--------------------------------------------|
A|--------------------------------------------|
E|-3-3-3--3-3-3--3-3-3--3-3-3-----------------|

G|--------------------------------------------|
D|--------------------------------------------|
A|--------------------------------------------|
E|-5-5-5--5-5-5--5-5-5--5---------------------|

G|-7-----------------------7------------------|
D|-7-----------------------7------------------|
A|-5--5-5-5--5-5-5--5-5-5--5--5-5-5--5-5------|
E|--------------------------------------------|

Parte 4
(Na 2º vez no lugar da ultima tab da parte 3)

G|-7-----------------------7------------------|
D|-7-----------------------7------------------|
A|-5--5-5-5--5-5-5--5-5-5--5--5-5-5--5-5------|
E|--------------------------------------------|

Introdução 4 - 2x:

Parte 1
G|--------------------------------------------|
D|--------------------------------------------|
A|-5-5-----5-5-----5-5-----5-5----------------|
E|-----5-5-----5-5-----5-5-----5--------------|

Parte 2
G|--------------------------------------------|
D|--------------------------------------------|
A|-1-1-----1-1-----1-1-----1-1----------------|
E|-----1-1-----1-1-----1-1-----1--------------|

Parte 3
G|--------------------------------------------|
D|--------------------------------------------|
A|-3-3-----3-3-----3-3-----3-3----------------|
E|-----3-3-----3-3-----3-3-----3--------------|

Parte 4
G|--------------------------------------------|
D|-----------------------5-5------------------|
A|-5-5-----5-5--7-7-8-8------8-8-7------------|
E|-----5-5------------------------------------|

Quinta parte - 2x:

Watching horror films the night before...

Parte 1
G|-7--------------3-------------5-------------|
D|-7--------------3-------------5-------------|
A|-5--5-5-5-5-5-5-1-1-1-1-1-1-1-3-5-5-5-5-5-5-|
E|--------------------------------------------|

Parte 2
G|-5-7-7-------------3------------------------|
D|-3-5-7-------------3------------------------|
A|-----5-5-5-5-5-5-5-1-1-1-1-1-1-1------------|
E|--------------------------------------------|

Parte 3
G|-5------------------------------------------|
D|-5------------------------------------------|
A|-3-3-3-3-3-3-3-3--3-3-3-3-3-3---------------|
E|--------------------------------------------|

Quarto Refrão:

Fear of the dark, fear of the dark...

Parte 1 - 3x:
G|-3------------5-------------7---------------|
D|-3------------5-------------7---------------|
A|-1-1-1-1--1-1-3-3-3-3--3-3--5-5-5-5-5-5-----|
E|--------------------------------------------|

G|-5------------3------------5-7--------------|
D|-5------------3------------3-5--------------|
A|-3-3-3-3--3-3-1-1-1-1--1-1------------------|
E|--------------------------------------------|

G|-7------------------------------------------|
D|-7------------------------------------------|
A|-5-5-5-5--5-5-5--5-5-5--5-5-----------------|
E|--------------------------------------------|

Parte 2
G|-3------------5-------------7---------------|
D|-3------------5-------------7---------------|
A|-1-1-1-1--1-1-3-3-3-3--3-3--5-5-5-5-5-5-----|
E|--------------------------------------------|

G|-5------------3---------5-7---7-------------|
D|-5------------3---------3-5---7-------------|
A|-3-3-3-3--3-3-1--1-1-1--------5-------------|
E|--------------------------------------------|

Prelúdio 2 - Final:

Parte 1
G|--------------------------------------------|
D|----7----7----7----7-----3---3---3---3------|
A|-5----5----5----5------1---1---1---1--------|
E|--------------------------------------------|

G|--------------------------------------------|
D|---5---5---5---5----3---3---5---5-----------|
A|-3---3---3---3----1---1---3---3-------------|
E|--------------------------------------------|

G|--------------------------------------------|
D|----7----7----7----7-----3---3---3---3------|
A|-5----5----5----5------1---1---1---1--------|
E|--------------------------------------------|

G|--------------------------------------------|
D|---5---5---5---5----5---5---5---5-----------|
A|-3---3---3---3----3---3---3---3-------------|
E|--------------------------------------------|

Parte 2

When I'm walking in a dark road...

G|--------------------------------------------|
D|----7----7----7----7-----3---3---3---3------|
A|-5----5----5----5------1---1---1---1--------|
E|--------------------------------------------|

G|--------------------------------------------|
D|---5---5---5---5/---10---10----12----12-----|
A|-3---3---3---3/---8----8----10----10--------|
E|--------------------------------------------|

G|--------------------------------------------|
D|----7----7----------------------------------|
A|-5----5----5--------------------------------|
E|--------------------------------------------|
00:00 / 00:00
Outros vídeos desta música
Repetir
Outros vídeos desta música
Composição de Steve Harris
Colaboração e revisão:
  • Reginaldo Costa
145.478 exibições

0 comentários

Ver todos os comentários

Entre para oCifra Club PRO

Tenha acesso a benefícios exclusivos no App e no Site

  • Chega de anúncios

  • Prioridade de compra em lançamentos

  • Mais recursos no app do Afinador

  • Atendimento Prioritário

  • Descontos nos produtos Cifra Club

  • Ajude a produzir mais conteúdo

00:00 / 00:00
Capítulos
  • Tocando a Música
  • Dicas Iniciais / Equipamentos
  • Tocando Introdução
  • Ensinando a Introdução
  • Tocando Primeira Parte
  • Tocando Primeiro Refrão
  • Introdução - Parte 1 de 4
  • Introdução - Parte 2 de 4
  • Introdução - Parte 3 de 4
  • Introdução - Parte 4 de 4
  • Segunda Parte - Parte 1 de 4
  • Segunda Parte - Parte 2 de 4
  • Segunda Parte - Parte 3 de 4
  • Segunda Parte - Parte 4 de 4
  • Segundo Refrão - Parte 1 de 6
  • Segundo Refrão - Parte 2 de 6
  • Segundo Refrão - Parte 3 de 6
  • Segundo Refrão - Parte 4 de 6
  • Segundo Refrão - Parte 5 de 6
  • Segundo Refrão - Parte 6 de 6
  • Terceira Parte - Parte 1 de 6
  • Terceira Parte - Parte 2 de 6
  • Terceira Parte - Parte 3 de 6
  • Terceira Parte - Parte 4 de 6
  • Terceira Parte - Parte 5 de 6
  • Terceira Parte - Parte 6 de 6
  • Terceiro Refrão - Parte 1 de 6
  • Terceiro Refrão - Parte 2 de 6
  • Terceiro Refrão - Parte 3 de 6
  • Terceiro Refrão - Parte 4 de 6
  • Terceiro Refrão - Parte 5 de 6
  • Terceiro Refrão - Parte 6 de 6
  • Solo de Guitarra - Parte 1 de 4
  • Solo de Guitarra - Parte 2 de 4
  • Solo de Guitarra - Parte 3 de 4
  • Solo de Guitarra - Parte 4 de 4
  • Quarta Parte - Parte 1 de 4
  • Quarta Parte - Parte 2 de 4
  • Quarta Parte - Parte 3 de 4
  • Quarta Parte - Parte 4 de 4
  • Quinta Parte - Parte 1 de 3
  • Quinta Parte - Parte 2 de 3
  • Quinta Parte - Parte 3 de 3
  • Quarto Refrão - Parte 1 de 2
  • Quarto Refrão - Parte 2 de 2
  • Prelúdio Final - Parte 1 de 2
  • Prelúdio Final - Parte 2 de 2
  • Encerramento
  • Ficha Técnica

Cifra Club Pro

Aproveite o Cifra Club com benefícios exclusivos e sem anúncios
Cifra Club Pro
Aproveite o Cifra Club com benefícios exclusivos e sem anúncios
OK