Cifra Club

Gates of Tomorrow

Iron Maiden

Cifra: Principal (violão e guitarra)
Tom: D#
Well, I`m not certains about anything on this tab but it sounds good to me!

  INTRO (repeat this till vocals beggins)
e|-------------------------------------------------------|
B|--8-8-8--10--8-8---12--8-8--10--8-8--10--8-8->---------|
G|--7-7-7--7---7-7---7---7-7---7--7-7---7--7-7->---------|
D|-------------------------------------------------------|
A|-------------------------------------------------------|
E|-------------------------------------------------------|

e|-------------------------------------------------------|
B|--6-6-6--8---6-6--10--6-6--8---6--6--8---6-6-----------|
G|--5-5-5--5---5-5---5--5-5--5---5--5--5---5-5-----------|
D|-------------------------------------------------------|
A|-------------------------------------------------------|
E|-------------------------------------------------------|

e|-------------------------------------------------------|
B|--8-8-8--10--8-8---12--8-8--10--8-8--10--8-8>----------|
G|--7-7-7--7---7-7---7---7-7---7--7-7---7--7-7>----------|
D|-------------------------------------------------------|
A|-------------------------------------------------------|
E|-------------------------------------------------------|

  Gm
e|-------------------------------------------------------|
B|--6-6-6--8---6-6--10--6-6--8---6--6--8---6-6-6>--------|
G|--5-5-5--5---5-5---5--5-5--5---5--5--5---5-5-5>--------|
D|-------------------------------------------------------|
A|-------------------------------------------------------|
E|-------------------------------------------------------|

  D#
e|------------------------------------------------------------|
B|--4-4-4---6--4-4--8---4-4-6---4-4-6---4-4-4-----------------|
G|--3-3-3---3--3-3--3---3-3-3---3-3-3---3-3-3-----------------|
D|------------------------------------------------------------|
A|------------------------------------------------------------|
E|------------------------------------------------------------|

(Vocals Begins) Gm           Fm                 Gm
e|----------------------------------------------------------------------------|
B|-------12--13--15--13--12-------10--12--13~--------12--13--15--13--12-------|
G|-12------------------------10-----------------12----------------------------|
D|----------------------------------------------------------------------------|
A|----------------------------------------------------------------------------|
E|----------------------------------------------------------------------------|

     Fm               D#                     Fm
e|----------------------------------------------------------------------------|
B|-------10--12--13~------8--10--11--10--8-------10--12--13~------------------|
G|--10----------------8----------------------10-------------------------------|
D|----------------------------------------------------------------------------|
A|----------------------------------------------------------------------------|
E|----------------------------------------------------------------------------|

    D#                     Fm
e|---------------------------------------------------------------------------|
B|------8--10--11--10--8-------10--12--13--12--10~---------------------------|
G|--8----------------------10------------------------------------------------|
D|---------------------------------------------------------------------------|
A|---------------------------------------------------------------------------|
E|---------------------------------------------------------------------------|

Suffering Evil when U pay the price of fame...(3 times)
e|-----------------------------------------------------------------|
B|-4---------------------------------------------------------------|
G|-3---------------------------------------------------------------|
D|-1---3---5-------5--------5--------5--5--------------------------|
A|-1---3---5-------5--------5--------5--5--------------------------|
E|-----1---3--3-3--3--3--3--3--3--3--3--3--------------------------|(3x)

 
Give me the strentgh so I carry on...
e|----------------------------------------------------------------------|
B|-4---6----------------------------------------------------------------|
G|-3---5---7---7---8---10-----------------------------------------------|
D|-1---3---7---7---8---10-----------------------------------------------|
A|-1---3---5---5---6----8-----------------------------------------------|
E|----------------------------------------------------------------------|

 
Trapped in the web...
e|-------------------------------------------------------------|
B|-------------------------------------------------------------|
G|-12----------12----------12----------12----------12--12------|
D|-12----------12----------12----------12----------12--12------|
A|-10--10--10--10--10--10--10--10--10--10--10--10--10--10------|
E|-------------------------------------------------------------|

e|------------------------------------------------------------|
B|------------------------------------------------------------|
G|--8--------8--------8--------8--------8--8------------------|
D|--8--------8--------8--------8--------8--8------------------|
A|--6--6--6--6--6--6--6--6--6--6--6--6--6--6------------------|
E|------------------------------------------------------------|

e|-----------------------------------------------------------|
B|-----------------------------------------------------------|
G|---12----------12----------12-------5--------5--------5----|
D|---12----------12----------12-------5--------5--------5----|
A|---10--10--10--10--10--10--10-------3--3--3--3--3--3--3----|
E|-----------------------------------------------------------|

e|-------------------------------------------------------------|
B|-------------------------------------------------------------|
G|-12----------12----------12----------12----------12--12------|
D|-12----------12----------12----------12----------12--12------|
A|-10--10--10--10--10--10--10--10--10--10--10--10--10--10------|
E|-------------------------------------------------------------|


Riff before solo
e|----6>5-------------6>5---------------6>5-------------------------|
B|-----------6---------------8---6-------------6---8~~--------------|
G|----------------8-------------------------------------------------|
D|------------------------------------------------------------------|
A|------------------------------------------------------------------|
E|------------------------------------------------------------------|

SORRY, NO SOLO(YET)
 
Riff after solo
e|--15b(17)--15---13--12----------------------------------------------|
B|---------------------------------15>13------------------------------|
G|--------------------------------------------14~~--------------------|
D|--------------------------------------------------------------------|
A|--------------------------------------------------------------------|
E|--------------------------------------------------------------------|

e|--------------------------------------------------------------------|
B|--13>15--13---------------------------------------------------------|
G|-------------------14--12-------------------------------------------|
D|-------------------------------15---12~~----------------------------|
A|--------------------------------------------------------------------|
E|--------------------------------------------------------------------|

 
e|--15b(17)--15---13--12----------------------------------------------|
B|---------------------------------15>13------------------------------|
G|--------------------------------------------14~~--------------------|
D|--------------------------------------------------------------------|
A|--------------------------------------------------------------------|
E|--------------------------------------------------------------------|

e|--13--15--13--15--17--15--13-------13-------------------------------|
B|------------------------------17--------17--15--13~~----------------|
G|--------------------------------------------------------------------|
D|--------------------------------------------------------------------|
A|--------------------------------------------------------------------|
E|--------------------------------------------------------------------|

Ending
e|-------------------------------------------------------|
B|--8-8-8--10--8-8---12--8-8--10--8-8--10--8-8->---------|
G|--7-7-7--7---7-7---7---7-7---7--7-7---7--7-7->---------|
D|-------------------------------------------------------|
A|-------------------------------------------------------|
E|-------------------------------------------------------| 

e|------------------------------------------------------------|
B|--6-6-6--8---6-6--10--6-6--8---6--6--8---6-6----------------|
G|--5-5-5--5---5-5---5--5-5--5---5--5--5---5-5----------------|
D|------------------------------------------------------------|
A|------------------------------------------------------------|(twice)
E|------------------------------------------------------------|(2x)

    Gm      Ab        Cm           Ab         Gm    Fm  Gm
e|--------------------------------------------------------------|
B|--8-8-8---11-11-11--13--13--13---11-11-11---8-8-8--6--8-8-8~~-|
G|--7-7-7---10-10-10--12--12--12---10-10-10---7-7-7--5--7-7-7~~-|
D|--------------------------------------------------------------|
A|--------------------------------------------------------------|
E|--------------------------------------------------------------| 

Well, I guess thats it!Never mind for any of the mistakes, I`m only human!


| /  slide up
|   slide down
| >  hammer-on
| 
exibições 9.398
Acordes para:
    Composição: Bruce Dickinson / Janick Gers / Steve Harris Colaboração e revisão:
    • Luiz Teixeira

    0 comentários

    mostrar mais comentários

    Conseguiu tocar?

    0 tocaram 0 ainda não

    Grave um vídeo tocando Gates of Tomorrow e mande pra gente!

    00:00 / 00:00
    outros vídeos desta música
    repetir qualidade Automático
    Outros vídeos desta música
    00:00 / 00:00
    Automático
    OK