Cifra Club

Journeyman

Iron Maiden

Cifra: Principal (violão e guitarra)
Tom: C
Dedilhado

INTRO:  

e|--------------------------------------------------|
B|-1-----1----0-----0----3-----3---1----1-----------|
G|---2-----2----2-----2----2-----2---2----2---------|
D|-----2----2-----2----2-----2----2--------2--------|
A|-0---------------------0--------------------------|
E|------------0--------------------0----------------|
Repete isso 2 vezes, antes de entrar os outros violoes
toque + 1 vez até ir para a parte que está abaixo

SOLO DE FUNDO Janick Gers
e|---------------------------------------------------|
B|---------------------------------------------------|
G|----5-4---7-5---9-7---5-4--------------------------|
D|---------------------------------------------------|
A|---------------------------------------------------|
E|---------------------------------------------------|
Depois dessa sequencia (3X), vem junto essa parte:

e|-0-----0------------------------------------------|
B|-----1----1-3-----3-----1-----1----0-----0--------|
G|---2----2-------2-----2-----2----2-----2-----2----|
D|-3----------3-3-----3-----0----0-----0-----0------|
A|--------------------------------------------------|
E|------------------------3----------3--------------|
Toque isso 1 vez, e uma vez com a parte d cima,
alternado, ouça bem a musica,q dá p notar bem essas 2 partes.
 
 Depois disso vem uma parte q eh uma levada de violão q fica nas notas F e A.


                                   
Depois disso vem a parte cantada, que eh:


F                               A
From the red sky of the east. To the sunset in the west
F                                          A
We have cheated death. And he has cheated us
F                               A
But that was just a dream. And this is what it means
F                                       A       
We are sleeping and we'll dream for Evermore


C                   D           A
And the fragment remains. Of our memories
C                   D           G
And the shadows we made. With our hands
C               D               F               G
Deeper grey, came to mourn. All the colours of  the dawn
C               D               A
Will this journeyman's day. Be his last

REFRAO: 
Dm                  F
I know what I want. And I say what I want
C                       Bb9  C9
And no one can take it away    
(Na quarta repetição do refrão, esticar o Bb9 junto com 
a voz de Dickson, e ao invés de tocar C9, tocar Dm)

(F  A)

F                               A
But the memory still remains. All the past years not so strange
F                                       A    
Our winter times are. Like a silent shroud

F                               A
And the heartbeat of the day. Drives the mist away
F                                       A
And the winter's not the only dream around

C                   D        A  
In your life you choose desoltaion
C                       D               G
And the shadow's you build with your hands
C                    D               F            G     
If you turn to the light. That is burning in the night
C              D               A
Then your journeyman's day has begun

Refrao

C                   D        A
In your life you choose desoltaion
C                      D                G
And the shadow's you build with your hands
C                     D                 F           G   
If you turn to the light. That is burning in the night
C               D                A
Then your journeyman's day has begun
exibições 65.900
Acordes para:
    Composição: A. Smith Colaboração e revisão:
    • Renan frança
    • Lucas
    • felipe areas

    0 comentários

    mostrar mais comentários

    Conseguiu tocar?

    13 tocaram 0 ainda não

    Grave um vídeo tocando Journeyman e mande pra gente!

    00:00 / 00:00
    outros vídeos desta música
    repetir qualidade Automático
    Outros vídeos desta música
    00:00 / 00:00
    Automático
    OK