Cifra Club

Justice Of The Peace

Iron Maiden

Cifra: Principal (violão e guitarra)
Tom: A
Você não conhece essa música? Normal,não é de nenhum disco do Maiden, mas apareceu no compacto da
Man on the Edge do X Factor. Compactos são mais difíceis de serem vendidos no Brasil.
Pra ouví-la e tocar ,use o emule pra fazer download. Vale a pena.

Riff 1
e-------------------------------------------------------------------------
b-------------------------------------------------------------------------
g------------------------------------------------------------------5---7-
d----------------------------------5-------------------------------5---7-
a---7-7-5/ 7-5/7-5/7-5/7----------------7-7-5/ 7-5/7-5/7-5/7-------3---5-
e-------------------------------7------------------------------7----------

   ___________2x________________
  __________________________2x__________________________________________

riff estrofes 1 e 2 
e---------------------------------------------------------------------|
b---------------------------------------------------------------------|
g---------------------------------------------------------------------|
d----------------------5---------------------------5------------------|
a---7-7-7-7-7------------8-7-7-7-7-7---------5-------8-7--------------|
e----------------7-8---------------------7-8--------------------------|

riff  2
e-----------------------------------------------------------------------|
b-16\14------------------------4\2--------------------------------------|
g----------16-13-----13-------------4-1----1----------------------------|
d------------------16-----16--------------4----4------------------------|
a-----------------------------------------------------------------------|
e-----------------------------------------------------------------------|

 solo inicial  (Talvez seja o Janick Gers ) com palm mute
e------------------------------------------------------------------------|
b------------------------------------------------------------------------|
g------------------------------------------------------------------------|
d-------11-12-9-11-------9-----------------------------------------------|
a---9-----------------12-----11-12---------------------------------------|
e------------------------------------------------------------------------|

Janick Gers
e---------------------10b---------------15b-13-------------------------------------------
b----10b-10b--------------13-------------------15----13-15-13-15-------------------------
g--------------12-10------------10b----------------14----------------14b-----------------
d------------------------------------------------------------------------------14-15-14--
a----------------------------------------------------------------------------------------
e----------------------------------------------------------------------------------------

e---------------13-17b-17b--------------------------------------------------
b------13--15----------------20-18-----13b-13-15-11/13-15-11/13-13-15-11/13-
g--14------------------------------19v--------------------------------------
d---------------------------------------------------------------------------
a---------------------------------------------------------------------------
e---------------------------------------------------------------------------

e-------------------------------------------------------------------------|
b--13-15------------------------------------------------------------------|
g---------14--------------------------------------------------------------|
d--------------17------17-------------------------------------------------|
a-------------------20------20--------------------------------------------|
e-------------------------------------------------------------------------|

Dave Murray

e----------------------------------------------------------------------|
b---------------------------------5b-6---------------------------------|
g--------------9/10-8v--------5--------7b------------------------------|
d-11/12-10--------------5-7--------------------------------------------|
a----------------------------------------------------------------------|
e----------------------------------------------------------------------|
    
e-----------------------------------------------------------13-17b---
b-------------------------------------------------13-15-16-----------
g----------------------------------------------14--------------------  o mais rápido que puder 
d-9/10---- 11/12--------9/10----------15-12-14-----------------------
a--------------------------------------------------------------------
e--------------------------------------------------------------------
    _4x___   __4x___     __4x___

    e---------------------------------------------------------------------------|
b-16/17----------19/20------20/22\0-----------------------------------------|
g---------------------------------------------------------------------------|
d---------------------------------------------------------------------------|
a---------------------------------------------------------------------------|
e---------------------------------------------------------------------------|
   __6X_         __6x__

Harmonia , repetir
e----------5-8-5------------5\0---------------------------------5-8-5------|
b---6-------------------6-----------6-8-6-5-6---------6--------------------|      
g------------------7-------------------------------5-----7-----------------|
d---------------------------------------------7----------------------------|
a--------------------------------------------------------------------------|
e--------------------------------------------------------------------------|
            _________essa é a repetição__________________________________

Como tocar:

riff 1 2x

Have you heard on the news                                
Another let off madman 
Another screw on the loose 
Is it the judge or the badman 

What's the matter these days 
No one has the courage to put them away 
Nobody has any faith 
'Cause there's a breakdown of justice and order

Refrão 2x:
E5                                   F#5
Waiting for justice, waiting for justice of the peace   riff2 2x
E5                                   F#5
Waiting for justice, waiting for justice of the peace   riff2 2x

C#5  D#5 

Use palm mute:

F#5           A5         D5          E5
When I remember back the memories of yesterday 
F#5                            A5      
With all the friends and all the times 
D5               E5
When people were carefree 
F#5         A5             
And walking down the street 
         D5            E5
When everyone knew everyone 
F#5           A5                      
And all the houses doors were open 
D5        E5                   B5
No had to care, those days are gone 

               D5
Those days are gone 
               E5
Those days are gone

F#5  E5  F#5 E5

Solo inicial  16x

Solo Janick Gers      Solo Dave Murray   Solo harmonia      ohhhhh!

Refrão

C#5  D#5

F#5            A5
I long for the times when you could 
D5                     E5
Wander down the street unharmed 
F#5                 A5  
When people  didn't have much money 
      D5           E5
But didn't seem to care 
F#5            A5      
It must be the cynic in me 
            D5                 E5
But I don't really like things now 
F#5                A5
The violence, the attitudes 
D5                  E5       B5     
Aggression that you see everyday 
    D5                         E5
A sick society looks the other way, Yeah!

Riff 1 2x e feche com E5 fazendo slide pra trás
exibições 2.422
Acordes para:
    Composição: David Murray / Ian Hunter / Steve Harris Colaboração e revisão:
    • Gustavo Gomes

    0 comentários

    mostrar mais comentários

    Conseguiu tocar?

    0 tocaram 0 ainda não

    Grave um vídeo tocando Justice Of The Peace e mande pra gente!

    00:00 / 00:00
    outros vídeos desta música
    repetir qualidade Automático
    Outros vídeos desta música
    00:00 / 00:00
    Automático
    OK