Cifra Club

Run To The Hills

Iron Maiden

Cifra: Principal (violão e guitarra)
Tom: D
Introdução:

(Guitarra Base - 4x)

E|----------------------------------------------------|
B|----------------------------------------------------|
G|-9--9--7~----7--7--9~-----5--5--7~------------------|
D|-7--7--7~----7--7--7~-----5--5--7~----5--5--7~------|
A|--------------------------------------5--5--7~------|
E|----------------------------------------------------|

(Guitarra Solo - 4x)

E|-12-----12-----10--------10-----10-----12-----------|
B|-15b17--15b17--13b15~----13b15--13b15--15b17~-------|
G|----------------------------------------------------|
D|----------------------------------------------------|
A|----------------------------------------------------|
E|----------------------------------------------------|

E|----------------------------------------------------|
B|-13-----13-----15--------8------8------10-----------|
G|-15b17--15b17--17b19~----10b12--10b12--12b14~-------|
D|----------------------------------------------------|
A|----------------------------------------------------|
E|----------------------------------------------------|

White man came
Across the sea
He brought us pain
And misery

He killed our tribes
He killed our creed
He took our game
For his own need

We fought him hard
We fought him well
Out on the plains
We gave him hell

(Guitarra Base)

E|----------------------------------------------------|
B|----------------------------------------------------|
G|-9--9--7~----7--7--9~-----5--5--7~------------------|
D|-7--7--7~----7--7--7~-----5--5--7~----5--5--7~------|
A|--------------------------------------5--5--5~------|
E|----------------------------------------------------|

(Guitarra Solo)

E|-12-----12-----10--------10-----10-----12-----------|
B|-15b17--15b17--13b15~----13b15--13b15--15b17~-------|
G|----------------------------------------------------|
D|----------------------------------------------------|
A|----------------------------------------------------|
E|----------------------------------------------------|

E|----------------------------------------------------|
B|-13-----13-----15----------------13b15~~------------|
G|-15b17--15b17--17b19~----12--12---------------------|
D|----------------------------------------------------|
A|----------------------------------------------------|
E|----------------------------------------------------|

But many came
Too much for Cree
Oh will we ever
Be set free?


Primeira Parte:

(Guitarra Base)

     P.M   . .   . .   . .   . .   . .   . .   . .
E|----------------------------------------------------|
B|----------------------------------------------------|
G|----------------------------------------------------|  (2x)
D|-7-----7-----7-----7-----7-----7-----7-----7--------|
A|-5-5-5-5-5-5-5-5-5-5-5-5-5-5-5-5-5-5-5-5-5-5-5-5----|
E|----------------------------------------------------|

     P.M   . .   . .   . .
E|----------------------------------------------------|
B|----------------------------------------------------|
G|----------------------------------------------------|
D|-5-----5-----5-----5-----5--5--5--5--5--5--5--5-----|
A|-3-3-3-3-3-3-3-3-3-3-3-3-3--3--2--2--3--3--2--2-----|
E|----------------------------------------------------|

     P.M   . .   . .   . .   . .   . .   . .   . .
E|----------------------------------------------------|
B|----------------------------------------------------|
G|----------------------------------------------------|
D|-7-----7-----7-----7-----7-----7-----7-----7--------|
A|-5-5-5-5-5-5-5-5-5-5-5-5-5-5-5-5-5-5-5-5-5-5-5-5----|
E|----------------------------------------------------|

     P.M   . .   . .   . .
E|----------------------------------------------------|
B|----------------------------------------------------|
G|----------------------------------------------------|
D|-5-----5-----5-----5-----5--5--5--5--5--5--5--5-----|
A|-3-3-3-3-3-3-3-3-3-3-3-3-3--3--2--2--3--3--2--2-----|
E|----------------------------------------------------|

     P.M   . .   . .   . .   . .   . .   . .   . .
E|----------------------------------------------------|
B|----------------------------------------------------|
G|----------------------------------------------------|
D|-2-----2-----2-----2-----5-----5-----5-----5--------|
A|-0-0-0-0-0-0-0-0-0-0-0-0-3-3-3-3-3-3-3-3-3-3-3-3----|
E|----------------------------------------------------|

     P.M   . .   . .   . .   . .   . .   . .   . .
E|----------------------------------------------------|
B|----------------------------------------------------|
G|----------------------------------------------------|
D|-------------------------7-----7-----7-----7-----7~-|
A|-3-----3-----3-----3-----5-5-5-5-5-5-5-5-5-5-5-5-5~-|
E|-1-1-1-1-1-1-1-1-1-1-1-1----------------------------|

(Guitarra Solo)

     P.M   . .   . .   . .   . .   . .   . .   . .
E|----------------------------------------------------|
B|----------------------------------------------------|
G|----------------------------------------------------|  (2x)
D|-7-----7-----7-----7-----7-----7-----7-----7--------|
A|-5-5-5-5-5-5-5-5-5-5-5-5-5-5-5-5-5-5-5-5-5-5-5-5----|
E|----------------------------------------------------|

     P.M   . .   . .   . .
E|----------------------------------------------------|
B|----------------------------------------------------|
G|----------------------------------------------------|
D|-5-----5-----5-----5-----5--5--5--5-----------------|
A|-3-3-3-3-3-3-3-3-3-3-3-3-3--3--2--2-----------------|
E|----------------------------------------------------|

     P.M   . .   . .   . .   . .   . .   . .   . .
E|----------------------------------------------------|
B|----------------------------------------------------|
G|----------------------------------------------------|
D|-7-----7-----7-----7-----7-----7-----7-----7--------|
A|-5-5-5-5-5-5-5-5-5-5-5-5-5-5-5-5-5-5-5-5-5-5-5-5----|
E|----------------------------------------------------|

     P.M   . .   . .   . .
E|----------------------------------------------------|
B|----------------------------------------------------|
G|----------------------------------------------------|
D|-5-----5-----5-----5-----5--5--5--5-----------------|
A|-3-3-3-3-3-3-3-3-3-3-3-3-3--2--3--2-----------------|
E|----------------------------------------------------|

E|----------------------------------------------------|
B|----------------3~----------------------------------|
G|----------------2~----------------------------------|
D|-2----5---------0-----------------------------------|
A|-0----3----3----------------------------------------|
E|-----------1----------------------------------------|

D5
   Riding through dustclouds and barren wastes
 C5                          ( C5  B5+  C5  B5+ )
Galloping hard on the plains
  D5
Chasing the redskins back to their holes
 C5                             ( C5  B5+  C5  B5+ )
Fighting them at their own game

 A5                     C5
Murder for freedom, a stab in the back
 F5                     D5
Women and children and cowards attack


Primeiro Refrão:

(Guitarra Base)

           P.M . .    . . . .
E|----------------------------------------------------|
B|-3----1----------1----------1--1--------3-----------|
G|-0----2----------2----------2--0--------0-----------|
D|-0----3----------3----------3--2--------0-----------|
A|------3----------3----------3--3----2~--------------|
E|-3----1--1-1-1-1-1--1-1-1-1-1-----------3---3-0-1-2-|

           P.M . .    . . . .
E|----------------------------------------------------|
B|-3----1----------1----------1--1--------3-----------|
G|-0----2----------2----------2--0--------0-----------|
D|-0----3----------3----------3--2--------0-----------|
A|------3----------3----------3--3----2~--------------|
E|-3----1--1-1-1-1-1--1-1-1-1-1-----------3-----------|

G5             F
   Run to the hills
C               G5
  Run for your lives
G5             F
   Run to the hills
C               G5
  Run for your lives


Segunda Parte:

 D5
Soldier blue in the barren wastes
 C5                          ( C5  B5+  C5  B5+ )
Hunting and killing for game
 D5
Raping the women and wasting the men
    C5                         ( C5  B5+  C5  B5+ )
The only good Indians are tame

 A5                      C5
Selling them whisky and taking their gold
    F5                       D5
Enslaving the young and destroying the old


Segundo Refrão:

G5             F
   Run to the hills
C               G5
  Run for your lives
G5             F
   Run to the hills
C               G5
  Run for your lives


Base do Solo:

    P.M    . .   . .         . .   . .   . .
E|----------------------------------------------------|
B|----------------------------------------------------|
G|----------------------------------------------------|
D|----------------------------------------------4-----|
A|-2-----2-----2-----2--4--5-----5-----5-----5--2-----|
E|-0-0-0-0-0-0-0-0-0-0--2--3-3-3-3-3-3-3-3-3-3--------|

     P.M   . .   . .
E|----------------------------------------------------|
B|----------------------------------------------------|
G|----------------------------------------------------|
D|-5-----5-----5-----5--------------------------------|
A|-3-3-3-3-3-3-3-3-3-3-2--3--2--3--2--3--2------------|
E|------------------------------------------3--2------|

    P.M    . .   . .         . .   . .   . .
E|----------------------------------------------------|
B|----------------------------------------------------|
G|----------------------------------------------------|
D|----------------------------------------------4-----|
A|-2-----2-----2-----2--4--5-----5-----5-----5--2-----|
E|-0-0-0-0-0-0-0-0-0-0--2--3-3-3-3-3-3-3-3-3-3--------|

     P.M   . .   . .
E|----------------------------------------------------|
B|----------------------------------------------------|
G|----------------------------------------------------|
D|-5-----5-----5-----5--------------------------------|
A|-3-3-3-3-3-3-3-3-3-3-2--3--2--3--2--3--2------------|
E|------------------------------------------3--2------|

    P.M    . .   . .         . .   . .   . .
E|----------------------------------------------------|
B|----------------------------------------------------|
G|----------------------------------------------------|
D|----------------------------------------------4-----|
A|-2-----2-----2-----2--4--5-----5-----5-----5--2-----|
E|-0-0-0-0-0-0-0-0-0-0--2--3-3-3-3-3-3-3-3-3-3--------|

     P.M   . .   . .
E|----------------------------------------------------|
B|----------------------------------------------------|
G|----------------------------------------------------|
D|-5-----5-----5-----5--------------------------------|
A|-3-3-3-3-3-3-3-3-3-3-2--3--2--3--2--3--2------------|
E|------------------------------------------3--2------|

    P.M    . .   . .         . .   . .   . .
E|----------------------------------------------------|
B|----------------------------------------------------|
G|----------------------------------------------------|
D|----------------------------------------------4-----|
A|-2-----2-----2-----2--4--5-----5-----5-----5--2-----|
E|-0-0-0-0-0-0-0-0-0-0--2--3-3-3-3-3-3-3-3-3-3--------|

    P.M    . .   . .
E|----------------------------------------------------|
B|----------------------------------------------------|
G|----------------------------------------------------|
D|-5-----5-----5-----5--------------------------------|
A|-3-3-3-3-3-3-3-3-3-3-2--3--2--3--2--3--2------------|
E|------------------------------------------3~--------|


Solo:

E|-------------12-------------------------------------|
B|-15b17r-15~-----15p12-15b17r15p12----12h15p12-------|
G|----------------------------------14----------------|
D|----------------------------------------------------|
A|----------------------------------------------------|
E|----------------------------------------------------|

E|----------------------------------------------------|
B|----12h14p12----------------------------------------|
G|-14----------14b16~~--12h14-14br-12b----------------|
D|--------------------------------------14~~----------|
A|----------------------------------------------------|
E|----------------------------------------------------|

E|----------------------------------------------------|
B|---------------------------------12h15p12-----------|
G|---------------------12h14...-14----------14--------|
D|-----------12h14p...--------------------------------|
A|-12h14p...------------------------------------------|
E|----------------------------------------------------|

E|----------------------------------------------------|
B|-12h15p12----12h15p12----------15h17p15-------------|
G|----------14----------14\--/16----------------------|
D|----------------------------------------------------|
A|----------------------------------------------------|
E|----------------------------------------------------|

E|----------------------------------------------------|
B|----15h17p15h17p15----15h17p15h17p15----15h17p15----|
G|-16----------------16----------------16-------------|
D|----------------------------------------------------|
A|----------------------------------------------------|
E|----------------------------------------------------|

E|----------------------------------------------------|
B|----15h17p15-17b20~~r\------------------------------|
G|-16-------------------------------------------------|
D|----------------------------------------------------|
A|----------------------------------------------------|
E|----------------------------------------------------|

E|----12h15p12h15p...---------------------------------|
B|-15-----------------12h15p12h15p...-----------------|
G|------------------------------------12h14p12h14p...-|
D|----------------------------------------------------|
A|----------------------------------------------------|
E|----------------------------------------------------|

E|----------------------------------------------------|
B|----------------------15-------15-------15----------|
G|-------------12h14b16----14b16----14b16----14b16r14-|
D|-12h14p12h14----------------------------------------|
A|----------------------------------------------------|
E|----------------------------------------------------|

E|-------17~~----------------------------x-15b18r-----|
B|------------15~~-17~~----------------x--------------|
G|-12~------------------14~~-16~~---------------------|
D|--------------------------------14~~----------------|
A|----------------------------------------------------|
E|----------------------------------------------------|


Interlúdio:

(Guitarra Base)
     P.M   . .   .   . .   . .   .   . .   . .   .
E|----------------------------------------------------|
B|----------------------------------------------------|
G|-2-----2-----2---4-----4-----4---5-----5-----5------|
D|-2-----2-----2---4-----4-----4---5-----5-----5------|
A|-0-0-0---0-0---0-0-0-0---0-0---0-0-0-0---0-0---0----|
E|----------------------------------------------------|

     P.M
E|----------------------------------------------------|
B|----------------------------------------------------|
G|-7-----7~-------------------------------------------|
D|-7-----7~-------------------------------------------|
A|-0-0-0-0--------------------------------------------|
E|----------------------------------------------------|

(Guitarra Solo)

      P.M    . .    .    . .    . .    .    . .    . .
E|----------------------------------------------------|
B|-10-----10-----10---12-----12-----12---13-----13----|
G|-9------9------9----11-----11-----11---12-----12----|
D|----------------------------------------------------|
A|----0-0----0-0----0----0-0----0-0----0----0-0----0-0|
E|----------------------------------------------------|

     P.M   . .
E|----------------------------------------------------|
B|-13---15-----15~~-----------------------------------|
G|-12---14-----14~~-----------------------------------|
D|----------------------------------------------------|
A|----0----0-0----------------------------------------|
E|----------------------------------------------------|


Terceiro Refrão:

G5             F
   Run to the hills
C               G5
  Run for your lives
G5             F
   Run to the hills
C               G5
  Run for your lives

G5             F
   Run to the hills
C               G5
  Run for your lives
G5             F
   Run to the hills
C               G5
  Run for your lives
exibições 249.030
Acordes para:
    Composição: Steve Harris Colaboração e revisão:

    0 comentários

    mostrar mais comentários

    Conseguiu tocar?

    34 tocaram 2 ainda não

    Grave um vídeo tocando Run To The Hills e mande pra gente!

    00:00 / 00:00
    outros vídeos desta música
    repetir qualidade Automático
    Outros vídeos desta música
    00:00 / 00:00
    Automático
    Capítulos
    • Início
    • Tocando a música
    • Tocando Introdução
    • Ensinando Introdução - Guitarra Base
    • Ensinando Introdução - Guitarra Solo
    • Acordes da Primeira Parte
    • Tocando Primeira Parte
    • Ensinando Primeira Parte - Guitarra Base
    • Ensinando Primeira Parte - Guitarra Solo
    • Acordes do Refrão
    • Tocando Refrão
    • Ensinando Refrão
    • Tocando Segunda Parte e Solo
    • Ensinando Base do Solo
    • Ensinando Solo
    • Tocando Interlúdio
    • Ensinando Interlúdio - Guitarra Base
    • Ensinando Interlúdio - Guitarra Solo
    • Encerramento
    OK