Cifra Club

Aprenda

The Clansman

Iron Maiden

Tab de baixo: Principal
Quer fazer aulas de música com a gente? Responda essas perguntas
e nos ajude nesse projeto! →
Intro
 Part I
G---9---9---9---9-|---7---7---7---7-|-----------------|---5---5---7---7-|
D-7---7---7---7---|-5---5---5---5---|---7---7---7---7-|-3---3---5---5---|
A-----------------|-----------------|-5---5---5---5---|-----------------|
E-----------------|-----------------|-----------------|-----------------|                                                                             


G---9---9---9---9-|---7---7---7---7-|-----------------|---5---5---7---7-|
D-7---7---7---7---|-5---5---5---5---|---7---7---7---7-|-3---3---5---5---|
A-----------------|-----------------|-5---5---5---5---|-----------------|
E-----------------|-----------------|-----------------|-----------------| 


G---9---9---9---9-|---7---7---7---7-|-----------------|---5---5---7---7-|
D-7---7---7---7---|-5---5---5---5---|---7---7---7---7-|-3---3---5---5---|
A-----------------|-----------------|-5---5---5---5---|-----------------|
E-----------------|-----------------|-----------------|-----------------| 


G---9---9---9---9-|---7---7---7---7-|-----------------|---5---5---7---7-|
D-7---7---7---7---|-5---5---5---5---|---7---7---7---7-|-3---3---5---5---|
A-----------------|-----------------|-5---5---5---5---|-----------------|
E-----------------|-----------------|-----------------|-----------------| 


 Part II
G---5---5---5---5-|---5---5---5---5-|-----------------|-----------------|
D-3---3---3---3---|-3---3---3---3---|---5---5---5---5-|---5---5---5---5-|
A-----------------|-----------------|-3---3---3---3---|-3---3---3---3---|
E-----------------|-----------------|-----------------|-----------------|                                                                             


G---7---7---7---7-|---7---7---7---7-|-----------------|-----------------|
D-5---5---5---5---|-5---5---5---5---|---7---7---7---7-|---7---7---7---7-|
A-----------------|-----------------|-5---5---5---5---|-5---5---5---5---|
E-----------------|-----------------|-----------------|-----------------|    


G---5---5---5---5-|---5---5---5---5-|-----------------|-----------------|
D-3---3---3---3---|-3---3---3---3---|---5---5---5---5-|---5---5---5---5-|
A-----------------|-----------------|-3---3---3---3---|-3---3---3---3---|
E-----------------|-----------------|-----------------|-----------------|


G---7---7---7---7-|---7---7---7---7-|---7---7---7---7-|---7---7---7---7-|
D--5---5---5---5--|--5---5---5---5--|--5---5---5---5--|--5---5---5---5--|
A-0---------------|-0---------------|-0---------------|-0---------------|
E-----------------|-----------------|-----------------|-----------------|  


 Part III 
G----7-9-9-7-9-9-|----7-9-9-10-9-|----7-9-9-7-9-9-|----7-9-9-10-9-|
D---7-7-7-7-7-7--|---7-7-7-7--7--|---7-7-7-7-7-7--|---7-7-7-7--7--|
A-0--------------|-0-------------|-0--------------|-0-------------|
E----------------|---------------|----------------|---------------|                                                                             


G---7---7---7---7-|-----------------|----7-9-9-7-9-9-|----7-9-9-10-9-|
D-5---5---5---5---|---7---7---7---7-|---7-7-7-7-7-7--|---7-7-7-7--7--|
A-----------------|-5---5---5---5---|-0--------------|-0-------------|
E-----------------|-----------------|----------------|---------------|                                                                             


G---7---7---7---7-|-----------------|---5---5---5---5-|-----------------|
D-5---5---5---5---|---7---7---7---7-|-3---3---3---3---|---5---5---5---5-|
A-----------------|-5---5---5---5---|-----------------|-3---3---3---3---|
E-----------------|-----------------|-----------------|-----------------|                                                                             


G---7---7---7---7-|-----------------|----9---9---9---9-|---9---9---9---9-|
D-5---5---5---5---|---7---7---7---7-|--7---7---7---7---|-7---7---7---7---|
A-----------------|-5---5---5---5---|-0----------------|-----------------|
E-----------------|-----------------|------------------|-----------------| 


 Vocals Enter
G----9---9---9---9-|---9---9---9---9-|----9---9---9---9-|---9---9---9---9-|
D--7---7---7---7---|-7---7---7---7---|--7---7---7---7---|-7---7---7---7---|
A-0----------------|-----------------|-0----------------|-----------------|
E------------------|-----------------|------------------|-----------------|                                                                             


G---7---7---7---7-|-----------------|----9---9---9---9-|---9---9---9---9-|
D-5---5---5---5---|---7---7---7---7-|--7---7---7---7---|-7---7---7---7---|
A-----------------|-5---5---5---5---|-0----------------|-----------------|
E-----------------|-----------------|------------------|-----------------|


G---7---7---7---7-|-----------------|---5---5---5---5-|-----------------|
D-5---5---5---5---|---7---7---7---7-|-3---3---3---3---|---5---5---5---5-|
A-----------------|-5---5---5---5---|-----------------|-3---3---3---3---|
E-----------------|-----------------|-----------------|-----------------|


G---7---7---7---7-|-----------------|----9---9---9---9-|---9---9---9---9-|
D-5---5---5---5---|---7---7---7---7-|--7---7---7---7---|-7---7---7---7---|
A-----------------|-5---5---5---5---|-0----------------|-----------------|
E-----------------|-----------------|------------------|-----------------|


G----9---9---9---9-|---9---9---9---9-|----9---9---9---9-|---9---9---9---9-|
D--7---7---7---7---|-7---7---7---7---|--7---7---7---7---|-7---7---7---7---|
A-0----------------|-----------------|-0----------------|-----------------|
E------------------|-----------------|------------------|-----------------|                                                                             


G---7---7---7---7-|-----------------|----9---9---9---9-|---9---9---9---9-|
D-5---5---5---5---|---7---7---7---7-|--7---7---7---7---|-7---7---7---7---|
A-----------------|-5---5---5---5---|-0----------------|-----------------|
E-----------------|-----------------|------------------|-----------------|


G---7---7---7---7-|-----------------|---5---5---5---5-|-----------------|
D-5---5---5---5---|---7---7---7---7-|-3---3---3---3---|---5---5---5---5-|
A-----------------|-5---5---5---5---|-----------------|-3---3---3---3---|
E-----------------|-----------------|-----------------|-----------------|


G---7---7---7---7-|-----------------|----9---9---9---9-|---9---9---9---9-|
D-5---5---5---5---|---7---7---7---7-|--7---7---7---7---|-7---7---7---7---|
A-----------------|-5---5---5---5---|-0----------------|-----------------|
E-----------------|-----------------|------------------|-----------------|


 Chorus (Freedom...)
G-----------------|-----------------|-----------------|-----------------|
D-----------------|-----------------|-----------------|---------5-5-5-5-|
A-7-7-7-7-7-7-7-7-|-3-3-3-3---------|-7-7-7-7-7-7-7-7-|-3-3-3-3---------|
E-----------------|---------3-3-3-3-|-----------------|-----------------|                                                                             


G-----------------|-----------------|-----------------|-----------------|
D-----------------|-----------------|-----------------|-----------------|
A-7-7-7-7-7-7-7-7-|-3-3-3-3---------|-----------------|-3-3-3-3-5-5-5-5-|
E-----------------|---------3-3-3-3-|-5-5-5-5-5-5-5-5-|-----------------|                                                                             


 Verse
G-----------------|-----------------|-----------------|-----------------|
D-----------------|-----------------|-----------------|-----------------|
A-7-7-7-7-7-7-7-7-|-7-7-7-7-7-7-7-7-|-7-7-7-7-7-7-7-7-|-7-7-7-7-7-7-7-7-|
E-----------------|-----------------|-----------------|-----------------|                                                                             


G-----------------|-----------------|-----------------|-----------------|
D-5-5-5-5-5-5-5-5-|-----------------|-----------------|-----------------|
A-----------------|-5-5-5-5-5-5-5-5-|-7-7-7-7-7-7-7-7-|-7-7-7-7-7-7-7-7-|
E-----------------|-----------------|-----------------|-----------------|                                                                             


G-----------------|-----------------|-----------------|-----------------|
D-5-5-5-5-5-5-5-5-|-----------------|-3-3-3-3-3-3-3-3-|-----------------|
A-----------------|-5-5-5-5-5-5-5-5-|-----------------|-3-3-3-3-3-3-3-3-|
E-----------------|-----------------|-----------------|-----------------|                                                                             


G-----------------|-----------------|-----------------|-----------------|
D-5-5-5-5-5-5-5-5-|-----------------|-----------------|-----------------|
A-----------------|-5-5-5-5-5-5-5-5-|-7-7-7-7-7-7-7-7-|-7-7-7-7-7-7-7-7-|
E-----------------|-----------------|-----------------|-----------------|                                                                             


Repeat Verse
Repeat Chorus

 Guitar duet I (2X)
G-----------------|-----------------|-----------------|-----------------|
D.7-7-7-7-7-7-7-7-|-7-7-7-7-7-7-7-7-|-3-3-3-3-5-5-5-5-|-7-7-7-7-7-7-7-7-|
A.----------------|-----------------|-----------------|-----------------|
E-----------------|-----------------|-----------------|-----------------|                                                                             


G-----------------|-----------------|-----------------|-----------------|
D.7-7-7-7-7-7-7-7-|-7-7-7-7-7-7-7-7-|-3-3-3-3-5-5-5-5-|-7-7-7-7-7-7-7-7-|
A.----------------|-----------------|-----------------|-----------------|
E-----------------|-----------------|-----------------|-----------------|


G-----------------|-----------------|-----------------|
D-3-3-3-3-5-5-5-5-|-7-7-7-7-7-7-7-7-|-7-7-7-7-7-7-7-7.|
A-----------------|-----------------|-----------------|
E-----------------|-----------------|-----------------|


 Guitar duet II (2X)
G-----------------|-----------------|-----------------|-----------------|
D-----------------|-5-5-5-5---------|-----------------|-----------------|
A-7-7-7-7-7-7-7-7-|---------3-3-3-3-|-5-5-5-5-5-5-5-5-|-5-5-5-5-5-5-5-5-|
E-----------------|-----------------|-----------------|-----------------|                                                                             


G-----------------|-----------------|-----------------|-----------------|
D-----------------|-5-5-5-5---------|-----------------|-----------------|
A-3-3-3-3-3-3-3-3-|---------5-5-5-5-|-7-7-7-7-7-7-7-7-|-7-7-7-7-7-7-7-7-|
E-----------------|-----------------|-----------------|-----------------|                                                                             


 Guitar solo I  (Repeat Guitar Duet II-2x)
 Guitar solo II (Repeat Chorus)
 Reapeat Intro Part III


 Interlude (oh-oh-oh)
G-----------------|-----------------|-----------------|-----------------|
D.----------------|-----------------|-----------------|-----------------|
A.7-7-7-7-7-7-7-7-|-7-7-7-7-7-7-7-7-|-7-7-7-7-7-7-7-7-|-7-7-7-7-7-7-7-7-|
E-----------------|-----------------|-----------------|-----------------|                                                                             


G-----------------|-----------------|-----------------|-----------------|
D-5-5-5-5-5-5-5-5-|-----------------|-----------------|-----------------|
A-----------------|-5-5-5-5-5-5-5-5-|-7-7-7-7-7-7-7-7-|-7-7-7-7-7-7-7-7-|
E-----------------|-----------------|-----------------|-----------------|


G-----------------|-----------------|-----------------|-----------------|
D-----------------|-----------------|-----------------|-----------------|
A-7-7-7-7-7-7-7-7-|-7-7-7-7-7-7-7-7-|-7-7-7-7-7-7-7-7-|-7-7-7-7-7-7-7-7-|
E-----------------|-----------------|-----------------|-----------------|     


G-----------------|-----------------|-----------------|-----------------|
D-5-5-5-5-5-5-5-5-|-----------------|-3-3-3-3-3-3-3-3-|-----------------|
A-----------------|-5-5-5-5-5-5-5-5-|-----------------|-3-3-3-3-3-3-3-3-| 
E-----------------|-----------------|-----------------|-----------------| 


G-----------------|-----------------|
D-----------------|-----------------|
A-7-7-7-7-7-7-7-7-|-7-7-7-7-7-7-7-7-|
E-----------------|-----------------|                                                                             


 Guitar Duet III (4X)
G-----------------|-----------------|-----------------|-----------------|
D-----------------|---------5-5-5-5-|-7-7-7-7---------|-5-5-5-5---------|
A-7-7-7-7-7-7-7-7-|-7-7-7-7---------|---------3-3-3-3-|---------5-5-5-5-|
E-----------------|-----------------|-----------------|-----------------|                                                                             
 
 Repeat Chorus
 Repeat Verse
 Repeat Chorus


G----7-9-9-7-9-9-|----7-9-9-10-9-|----7-9-9-7-9-9-|----7-9-9-10-9-|
D---7-7-7-7-7-7--|---7-7-7-7--7--|---7-7-7-7-7-7--|---7-7-7-7--7--|
A-0--------------|-0-------------|-0--------------|-0-------------|
E----------------|---------------|----------------|---------------|                                                                             


G---7---7---7---7-|-----------------|----7-9-9-7-9-9-|----7-9-9-10-9-|
D-5---5---5---5---|---7---7---7---7-|---7-7-7-7-7-7--|---7-7-7-7--7--|
A-----------------|-5---5---5---5---|-0--------------|-0-------------|
E-----------------|-----------------|----------------|---------------|                                                                             


G---7---7---7---7-|-----------------|---5---5---5---5-|-----------------|
D-5---5---5---5---|---7---7---7---7-|-3---3---3---3---|---5---5---5---5-|
A-----------------|-5---5---5---5---|-----------------|-3---3---3---3---|
E-----------------|-----------------|-----------------|-----------------|                                                                             


G---7---7---7---7-|-----------------|----9---9---9---9-|---9---9---9---9-|
D-5---5---5---5---|---7---7---7---7-|--7---7---7---7---|-7---7---7---7---|
A-----------------|-5---5---5---5---|-0----------------|-----------------|
E-----------------|-----------------|------------------|-----------------| 

End.

_______________________________________________________
Contribuição: Vinicius Renan(viniciusrenan@ironmaiden.com)
Composição de Steve Harris
10.255 exibições

0 comentários

Ver todos os comentários

Conseguiu tocar?

1 Tocaram 0 Ainda não

Grave um vídeo tocando The Clansman e nos envie!

00:00 / 00:00
Outros vídeos desta música
Repetir Qualidade Automático
Outros vídeos desta música
00:00 / 00:00
Automático

Cifra Club Pro

Aproveite o Cifra Club com benefícios exclusivos e sem anúncios
Cifra Club Pro
Aproveite o Cifra Club com benefícios exclusivos e sem anúncios
OK