Cifra Club

Black Friday Cifra Club

The Writing On The Wall

Iron Maiden

Cifra: Principal (violão e guitarra)
tom: Dm
[Intro 1] 

   D5
E|------------------------------------------|
B|------3--------3----3---------------------|
G|------2--------2h3--2h3p2p0-----0h2-------|
D|------0---------------------3--------0----|
A|------0-----------------------------------|
E|-0----------------------------------------|

E|------------------------------------------|
B|------------------------------------------|
G|--------0---------------------------------|
D|-0-2-3-----3--0h2p0-----------------------|
A|---------------------3--------------------|
E|------------------------------------------|

E|------------------------------------------|
B|------3--------3----3---------------------|
G|------2--------2h3--2h3p2p0-----0h2-------|
D|------0---------------------3--------0----|
A|------0-----------------------------------|
E|-0----------------------------------------|

E|------------------------------------------|
B|-----------3----------------------------3-|
G|--------0-----0-------------------------2-|
D|-0-2-3-----------0h2--------2h3p2p0-----0-|
A|----------------------------------------0-|
E|-------------------------------------0----|

[Intro 2 - 4x] D5

E|------------------------------------------|
B|------------------------------------------|
G|------------0-----0-----------------------|
D|-0-----0-3~----3~----2p0------------------|
A|---0-3-------------------3----------------|
E|------------------------------------------|
 
E|------------------------------------------|
B|---------------------2--------------------|
G|------------0--------3--------------------|
D|-0-----0-3~----2p0---0--------------------|
A|---0-3-------------3-0--------------------|
E|------------------------------------------|

[Intro 3] D5
          C2  G/B  C2  D5
          C2  G/B  C2  G/B

                     D5
E|------------------------------------------|
B|-------------------2---2------------------|
G|-3-2-0-------------3---3------------------|
D|-------3-2-0-------0---0------------------|
A|-------------3-0---0---0------------------|
E|------------------------------------------|
 
                     D5         
E|-------------------0---0------------------|
B|-------------------2---2------------------|
G|-3-2-0-------------3---3------------------|
D|-------3-2-0-------0---0------------------|
A|-------------3-0---0---0------------------|
E|------------------------------------------|

   C2     G/B C2  D5
E|------------------------------------------|
B|-3---3--3---3---3---3--3------------------|
G|-0---0--0---0---2---2--2------------------|
D|-0---0--0---0---0---0--0------------------|
A|-3---3--2---3---0---0--0------------------|
E|------------------------------------------|
 
   C2     G/B C2  G/B
E|------------------------------------------|
B|-3---3--3---3---3-------------------------|
G|-0---0--0---0---0-------------------------|
D|-0---0--0---0---0-------------------------|
A|-3---3--2---3---2-------------------------|
E|------------------------------------------|

[Intro 4] D5

   D5
E|------------------------------------------|
B|-3----3-----2--3----3-----2--3----3-------|
G|-0h2--2-----2--0h2--2-----2--0h2--2-------|
D|-0----0-----0--0----0-----0--0----0-------|
A|------------------------------------------|
E|------------------------------------------|
 
E|------------------------------------------|
B|------------------------------------------|
G|--------0---------------------------------|
D|-0-2-3-----2p0----------------------------|
A|---------------3--------------------------|
E|------------------------------------------|

[Primeira Parte] 

   D5
Across a painted desert lies
 
A train of vagabonds
 
All that's left of what we were
 
It's what we have become
 
Once our empires glorious 
 
But now the empire's gone
 
The dead gave us the time to live 
 
And now our time is done
 
[Pré-Refrão] 
 
 C2
Now we are victorious
 D5
We’ve become our slaves
   Bb5
A land of hope and glory building
  C5
Graveyards for the brave

[Refrão] 
 
 D5       F5        C5            G5
Have you seen the writing on the wall
D5           F5         C5    G5
   Have you seen that writing
 D5      F5      C5             G5
Can you see the riders on the storm
Bb5                   C5    Bb5
    Can you see them riding
                  C5
Can you see them riding

[riff principal - 2x]

( D5 )

   D5
E|------------------------------------------|
B|------------------------------------------|
G|------------0-----0-----------------------|
D|-0-----0-3~----3~----2p0------------------|
A|---0-3-------------------3----------------|
E|------------------------------------------|
 
E|------------------------------------------|
B|---------------------2--------------------|
G|------------0--------3--------------------|
D|-0-----0-3~----2p0---0--------------------|
A|---0-3-------------3-0--------------------|
E|------------------------------------------|

[Segunda Parte] 

 D5
Holding on to jury
       
Is that all we ever know
 
Ignorance our judge and jury
                  
All we’ve got to show
      C2
From hollywood to babylon
      G/B
Holy war to kingdom come
       D5 
On a trail of dust and ashes
          
When the burning sky is done

[Pré-Refrão] 

   C2
A tide of change is coming
      D5
And that is what you fear
    Bb5
The earthquake is a coming
     C5
But you don’t want to hear
 
You’re just too blind to see
 
[Refrão] 
 
 D5       F5        C5            G5  
Have you seen the writing on the wall
D5           F5         C5    G5
   Have you seen that writing
 D5      F5      C5             G5  
Can you see the riders on the storm
Bb5                   C5    Bb5
    Can you see them riding
                  C5
Can you see them riding

[riff principal - 2x] 

( D5 )

   D5
E|------------------------------------------|
B|------------------------------------------|
G|------------0-----0-----------------------|
D|-0-----0-3~----3~----2p0------------------|
A|---0-3-------------------3----------------|
E|------------------------------------------|
 
E|------------------------------------------|
B|---------------------2--------------------|
G|------------0--------3--------------------|
D|-0-----0-3~----2p0---0--------------------|
A|---0-3-------------3-0--------------------|
E|------------------------------------------|

[Solo 1] A5  F5  G5 
         A5  C5  G5
         A5  F5  G5
         A5  C5  G5

[Parte 1]

E|-----12-----------------------------------|
B|--------15b17~----b17r15-13---------------|
G|-/14------------------------14~-----------|
D|------------------------------------------|
A|------------------------------------------|
E|------------------------------------------|

[Parte 2]

E|-----------------17----20b22--20~---------|
B|--------------17----17--------------------|
G|--------19b21-----------------------------|
D|-/19--------------------------------------|
A|------------------------------------------|
E|------------------------------------------|
 
E|-17h20p17h19p17----17---------------------|
B|----------------20----20b22r-b22~---------|
G|------------------------------------------|
D|------------------------------------------|
A|------------------------------------------|
E|------------------------------------------|

[Parte 3]

E|--------------------------17-----20b22~-20|
B|-----------------------17----17-----------|
G|-b21r19p17h19p17\16/17--------------------|
D|------------------------------------------|
A|------------------------------------------|
E|------------------------------------------|

E|-19b20r19~-17-19-20p19p17----17-----------|
B|--------------------------20----20b22\----|
G|------------------------------------------|
D|------------------------------------------|
A|------------------------------------------|
E|------------------------------------------|

[Parte 4]

E|------------------------------------------|
B|-18b20--17---------------17---------------|
G|------------20--19--17b------17------17---|
D|---------------------------------19-------|
A|------------------------------------------|
E|------------------------------------------|

E|------------------------------------------|
B|-19b--17------17-19br19p17\---------------|
G|-19b--17------17-19br19p17\---------------|
D|----------19------------------------------|
A|------------------------------------------|
E|------------------------------------------|

[Interlúdio] D5  Bb5  C5
             D5  C2
             D5  Bb5  C5
             D5  C2

   D5
E|------------------------------------------|
B|------------------------------------------|
G|---2-2---2-3-2-0--------------0-----------|
D|-0---------------3-0----0-2-3---2h3p2-0---|
A|----------------------------------------0-|
E|------------------------------------------|
 
   Bb5   C5
E|------------------------------------------|
B|------------------------------------------|
G|------------------------------------------|
D|----3-----5-------------------------------|
A|-1-----3----------------------------------|
E|------------------------------------------|
 
   D5
E|------------------------------------------|
B|------------------------------------------|
G|---2-2---2-3-2-0--------------0-----------|
D|-0---------------3-0----0-2-3---2h3p2-0---|
A|----------------------------------------0-|
E|------------------------------------------|
 
   C2
E|------------------------------------------|
B|-3----------------------------------------|
G|-0----------------------------------------|
D|-0----------------------------------------|
A|-3----------------------------------------|
E|------------------------------------------|

[Solo 2] D5  C5  Bb5  C5 
         D5  C5  Bb5  C5 
         D5  C5  Bb5  C5 
         D5  C5  Bb5 (Passagem)

[Parte 1]

E|------------------------------------------|
B|---------13b15r13-------------------------|
G|-10-12~-----------10~---------------------|
D|------------------------------------------|
A|------------------------------------------|
E|------------------------------------------|

E|------------------------------------------|
B|------------------------------------------|
G|------------------9h10p9------------------|
D|-10-12-12~--10h12--------12-10------------|
A|-------------------------------12~--------|
E|------------------------------------------|

[Parte 2]

E|------------------------------------------|
B|------------------------------------------|
G|------10-------10-9-------9\7-----7\5-----|
D|------------12---------10-------8-------7-|
A|-/12-----12---------10--------8-------7---|
E|------------------------------------------|

E|------------------------------------------|
B|------------------------------------------|
G|-5\3-----3\2~-----------------------------|
D|-------5----------------------------------|
A|-----5------------------------------------|
E|------------------------------------------|

[Parte 3]

E|----------10-12-13p12p10-12-10------------|
B|-------10----------------------13-11-10~--|
G|----10------------------------------------|
D|-12---------------------------------------|
A|------------------------------------------|
E|------------------------------------------|

E|--------8-10-12p10p8-10-8-----------------|
B|------8-------------------11-10-8---------|
G|----9-------------------------------------|
D|-10---------------------------------------|
A|------------------------------------------|
E|------------------------------------------|

[Parte 4]

E|----------10-12-13p12p10----10------------|
B|-13b15~~-----------------13----13-10------|
G|-------------------------------------12b14|
D|------------------------------------------|
A|------------------------------------------|
E|------------------------------------------|

E|----12------------------------------------|
B|-12----13p10------------------------------|
G|-------------12b14-12-10----12-10----12-10|
D|-------------------------12-------12------|
A|------------------------------------------|
E|------------------------------------------|

E|------------------------------------------|
B|------------------------------------------|
G|----10-12----10---------------------------|
D|-12-------12----10------------------------|
A|-------------------12~--------------------|
E|------------------------------------------|

[Parte 5]

E|-13b15--13~--15b17r--b18--b17r15p13--15---|
B|----------------------------------------15|
G|------------------------------------------|
D|------------------------------------------|
A|------------------------------------------|
E|------------------------------------------|

E|-13~--------------------------------------|
B|------15----13-15/18-15~------------------|
G|---------14-------------------------------|
D|------------------------------------------|
A|------------------------------------------|
E|------------------------------------------|

[Parte 6]

E|----------------------------------15-17-13|
B|----15-18----15h18p15----15-15-18---------|
G|-17-------17----------17------------------|
D|------------------------------------------|
A|------------------------------------------|
E|------------------------------------------|

E|-15----12---------------------------------|
B|----15----15p13----15~----13-10-----------|
G|----------------14--------------12-10-----|
D|--------------------------------------12~-|
A|------------------------------------------|
E|------------------------------------------|

[Parte 7]

E|----------------------------10-10----10~--|
B|----------10-13p10----10-13-------13------|
G|----10-12----------12---------------------|
D|-12---------------------------------------|
A|------------------------------------------|
E|------------------------------------------|

E|-10---10-10-10-10-10------10------10------|
B|------------------13b15~--13b15~--13b15~--|
G|------------------------------------------|
D|------------------------------------------|
A|------------------------------------------|
E|------------------------------------------|

[Parte 8]

E|-10h12h13/15-12h13h15/17-13h15h17/18------|
B|------------------------------------------|
G|------------------------------------------|
D|------------------------------------------|
A|------------------------------------------|
E|------------------------------------------|

E|-15h17h18/20b22--20--18--17---------------|
B|-----------------------------20--18-------|
G|-------------------------------------19~--|
D|------------------------------------------|
A|------------------------------------------|
E|------------------------------------------|

[Refrão] 
 
 D5       F5        C5            G5
Have you seen the writing on the wall
D5           F5         C5    G5
   Have you seen that writing
 D5      F5      C5             G5
Can you see the riders on the storm
Bb5                   C5   
    Can you see them riding
 
 D5       F5        C5            G5
Have you seen the writing on the wall
D5           F5         C5    G5
   Have you seen that writing
 D5      F5      C5             G5
Can you see the riders on the storm
Bb5                   C5    Bb5
    Can you see them riding
                  C5
Can you see them riding
                D5
Riding next to you
00:00 / 00:00
Outros vídeos desta música
Repetir
Outros vídeos desta música
Composição de Adrian Smith / Bruce Dickinson
Colaboração e revisão:
  • Vinícius Dias
  • Miguel Pereira
  • Christopher Garcia
12.360 exibições
    • ½ Tom
    • Am
    • Bbm
    • Bm
    • Cm
    • C#m
    • Dm
    • Ebm
    • Em
    • Fm
    • F#m
    • Gm
    • G#m
  • Adicionar à lista

    0 comentários

    Ver todos os comentários

    Conseguiu tocar?

    3 Tocaram 0 Ainda não

    Grave um vídeo tocando The Writing On The Wall e nos envie!

    Entre para oCifra Club PRO

    Tenha acesso a benefícios exclusivos no App e no Site

    • Chega de anúncios

    • Prioridade de compra em lançamentos

    • Mais recursos no app do Afinador

    • Atendimento Prioritário

    • Descontos nos produtos Cifra Club

    • Ajude a produzir mais conteúdo

    00:00 / 00:00
    Capítulos
    • Tocando a Música
    • Ensinando Introdução 1
    • Ensinando Introdução 2
    • Pedais Utilizados
    • Ensinando Introdução 3
    • Ensinando Introdução 4
    • Ritmo Pré-Refrão
    • Ritmo Refrão
    • Ensinando Solo 1
    • Ensinando Interlúdio
    • Ensinando Solo 2
    • Encerramento

    Cifra Club Pro

    Aproveite o Cifra Club com benefícios exclusivos e sem anúncios
    Cifra Club Pro
    Aproveite o Cifra Club com benefícios exclusivos e sem anúncios
    OK