Cifra Club

The Writing On The Wall

Iron Maiden

Tab de baixo: Principal
[Intro]

[Parte 1 De 2]

G|--3-2-0-------------7-7---7-------------------|
D|--------3-2-0-------7-7---7-------------------| (2x)
A|--------------3-0---5-5---5-------------------|
E|----------------------------------------------|

G|----------------------------------------------|
D|----------------------------------------------|
A|--3--3-2--3--5-5-5----3--3-2--3---------------|
E|---------------------------------3------------|

[Parte 2 De 2]

G|--7--7-----5/7----7--5/7----7-----------------|
D|--7--7-----5/7----7--5/7----7--0-2-3-3-2p0----|
A|--5--5-x-x-3/5--x-5--3/5--x-5--------------3--|
E|----------------------------------------------|

G|-7-7--7-----5/7----7--5/7----7----------------|
D|-7-7--7-----5/7----7--5/7----7--0-2-3-3-2p0---|
A|-5-5--5-x-x-3/5--x-5--3/5--x-5--------------3-|
E|----------------------------------------------|

[Verso] 

G|--7--7---7--7---7--7--------------------------|
D|--7--7---7--7---7--7--0-2-3--3--0h2p0---------|
A|--5--5-x-5--5-x-5--5------------------3-------|
E|----------------------------------------------|

G|--7--7--7--7---7--7---------------------------|
D|--7--7--7--7---7--7--0-2-3--3--2--------------|
A|--5--5--5--5-x-5--5---------------x-----------|
E|----------------------------------------------|

G|--7--7---7--7--7--7---------------------------|
D|--7--7---7--7--7--7--0-2-3--3--2p0------------|
A|--5--5-x-5--5--5--5----------------3----------|
E|----------------------------------------------|

G|--7--7---7--7--7--7---------------------------|
D|--7--7---7--7--7--7--0-2-3--3--2--------------|
A|--5--5-x-5--5--5--5---------------x-----------|
E|----------------------------------------------|

[Pré-Refrão] 

G|--5------------------7------------------------|
D|--5--5---------------7------------------------|
A|--3----3-3--3--3--0--5--5--5-5-5--5--5--0-0---|
E|----------------------------------------------|

G|--3----------------------5--------------------|
D|--3----------------------5--------------------|
A|--1---1--1-1-1--1--1--1--3---3--3--3--3-3-0---|
E|----------------------------------------------|

G|--5---5---5---5---5--7------------------------|
D|--5---5---5---5---5--7------------------------|
A|--3---3---3---3---3--5------------------------|
E|----------------------------------------------|

[Refrão]

[Parte 1 De 2]

G|--7--------10-------5---------12--------------|
D|--7--------10-------5---------12--------------|
A|--5--5-5-5-8--8-8-8-3-3-3-3-3-10-10-10-10-10--|
E|----------------------------------------------|

G|--7--------10-------5----------12-12--12------|
D|--7--------10-------5----------12-12--12------|
A|--5--5-5-5-8--8-8-8-3-3-3-3-3--10-10--10------|
E|----------------------------------------------|

G|--7------10-----5------12---------------------|
D|--7------10-----5------12---------------------|
A|--5--5-x-8--8-x-3--3-x-10--10-x---------------|
E|----------------------------------------------|

[Parte 2 De 2]

G|--3-----------------5-------------------------|
D|--3-----------------5-------------------------|
A|--1-1-1-1--1-1-1-1--3-3-3-3-3--3--3-3-3--0----|
E|----------------------------------------------|

G|--3-------------------5-----------------------|
D|--3-------------------5-----------------------|
A|--1-1-1-1--1-1-1-1-0--3-3-3-3--3-3-3--3--3--0-|
E|----------------------------------------------|

[Riff] 

G|-----------7--7------------------7------------|
D|-----5-5-7-------7-5-5-7-----5h7------3-3-----|
A|--5-----------------------5---------5-----3-5-|
E|----------------------------------------------|

G|-----------7--7--7---7------------7-----------|
D|-----5-5-7---------7---7----5-5h7---2p0-------|
A|--5-----------------------5-------------3-5-x-|
E|----------------------------------------------|

[Verso] 

G|--7---7---7-7-7---7-7-7-----------------------|
D|--7---7---7-7-7---7-7-7----3--3--2p0----------| (2x)
A|--5-5-5-5-5-5-5-5-5-5-5-5------------3--------|
E|----------------------------------------------|

G|--5-------------------------------------------|
D|--5---------------------5---------------------|
A|--3--3-3-3-3--3-3-3-3-3-5---------------------|
E|------------------------3--3-3-3-3--3-3-3-3-3-|

G|--7--7-----7-7-7-----7-7-7--------------------|
D|--7--7-----7-7-7-----7-7-7--3--3--2p0---------|
A|--5--5-5-3-5-5-5-5-3-5-5-5------------3-------|
E|----------------------------------------------|

[Pré-Refrão] 

G|--5------------------7------------------------|
D|--5--5---------------7------------------------|
A|--3----3-3--3--3--0--5--5--5-5--5--5--0-------|
E|----------------------------------------------|

G|--3--------------------5----------------------|
D|--3--------------------5----------------------|
A|--1---1--1-1--1--1--0--3---3--3-3--3--3--0----|
E|----------------------------------------------|

G|--5---5---5---5---5---------------------------|
D|--5---5---5---5---5---------------------------|
A|--3---3---3---3---3---------------------------|
E|----------------------------------------------|

[Refrão]

[Parte 1 De 2]

G|--7-------10------5---------------------------|
D|--7-------10------5---------------------------|
A|--5--5-0--8--8-0--3--3-3--8h10-10-10--8-7-----|
E|----------------------------------------------|

G|--7-------10------5-------12------------------|
D|--7-------10------5-------12------------------|
A|--5--5-0--8--8-0--3--3-0--10--10-0------------|
E|----------------------------------------------|

[Parte 2 De 2]

G|--3---------------------5---------------------|
D|--3---------------------5---------------------|
A|--1-1-1-1-1-1-1-1-1-1-1-3-3-3-3-3-3-3-3-3-3-3-|
E|----------------------------------------------|

G|--3---------------------5---------------------|
D|--3---------------------5---------------------|
A|--1-1-1-1-1-1-1-1-1-1-1-3-3-3-3-3-3-3-3-3-3-x-|
E|----------------------------------------------|

[Riff] 

G|-----------7--7------------------7------------|
D|-----5-5-7-------7-5-5-7-----5h7----2p0-------|
A|--5-----------------------5-------------3-5---|
E|----------------------------------------------|

G|-----------7--7--7---7------------7-----------|
D|-----5-5-7---------7---7----5-5h7---2p0-------|
A|--5-----------------------5-------------3-5---|
E|----------------------------------------------|

[Solo 1] 2x

G|----------------------------------------------|
D|----------------------------------------------|
A|----------------------------------------------|
E|--5--5--5-5-3h5-5-5-5-5-3h5-5-5-5-5-1--3------|

G|------------------------------------5---------|
D|------------------------------------5--5------|
A|------------------------------------3--5------|
E|--5--5--5-5-3h5-5-5-5-5-3h5-5-5-5-5----3------|

[Interlúdio] 

G|----------------------------------------------|
D|----------------------------------------------|
A|--5-5-5-5-5-5-5-5-5-5-5-5-5-5-5-0-0-1-1-3-3---|
E|----------------------------------------------|

G|-----------------------------------5----------|
D|-----------------------------------5----------|
A|--5-5-5--5-5-5-5-5-5--5--5--5--5-5-3--3-0-----|
E|----------------------------------------------|

G|----------------------------------------------|
D|----------------------------------------------|
A|--5-5-5--5-5-5-5-5-5--5-5-5-5-5-5-0-0-1-1-3-3-|
E|----------------------------------------------|

G|-----------------------------------5----------|
D|-----------------------------------5----------|
A|--5-5-5--5-5-5-5-5--5-5--5-5-5--0--3--3-0-----|
E|----------------------------------------------|

[Solo 2]

[Parte 1 De 3] 3x

G|----------------------------------------------|
D|----------------------------------------------|
A|--5--5--5-5-5-5-0--3--3--3-3-3-3-0------------|
E|----------------------------------------------|

G|----------------------------------------------|
D|----------------------------------------------|
A|--1--1--1-1-1-1-0--1--1--1--1/3--3-3-3-0------|
E|----------------------------------------------|

[Parte 2 De 2]

G|----------------------------------------------|
D|----------------------------------------------|
A|--5--5--5-5-5-5-0--3--3--3-3-3-3-0------------|
E|----------------------------------------------|

G|----------------------------------------------|
D|-------------------------------------5-5-7-7--|
A|--1--1--1-1-1-1-0--1-1-1-3--5-5-5-7-----------|
E|----------------------------------------------|

[Refrão]

[Parte 1 De 4]

G|--7-------10-10-10---5-----12-12-12-----------|
D|--7-------10-10-10---5-----12-12-12-----------|
A|--5--5-5--8--8--8--x-3--3--10-10-10-x---------|
E|----------------------------------------------|

G|--7-------10--10--5---5---12-12--12-----------|
D|--7-------10--10--5---5---12-12--12-----------|
A|--5--5-x--8---8---3---3---10-10--10-----------|
E|----------------------------------------------|

G|--7-7-7--10-10-10--5---5---12-12-12-----------|
D|--7-7-7--10-10-10--5---5---12-12-12-----------|
A|--5-5-5--8--8--8---3---3---10-10-10-x---------|
E|----------------------------------------------|

[Parte 2 De 4]

G|--3---------------------5---------------------|
D|--3---------------------5---------------------|
A|--1-1-1-1-1-1-1-1-1-1-1-3-3-3-3-3-3-3-3-3-3-3-|
E|----------------------------------------------|

[Parte 3 De 4]

G|--7-7-7---10-10-10---5-----12-12-12-----------|
D|--7-7-7---10-10-10---5-----12-12-12-----------|
A|--5-5-5-x-8--8--8--x-3--3--10-10-10-x---------|
E|----------------------------------------------|

G|--7-------10--10--5---5---12-12--12-----------|
D|--7-------10--10--5---5---12-12--12-----------|
A|--5--5-x--8---8---3---3---10-10--10-----------|
E|----------------------------------------------|

G|--7-7-7--10-10-10--5---5---12-12-12-----------|
D|--7-7-7--10-10-10--5---5---12-12-12-----------|
A|--5-5-5--8--8--8---3---3---10-10-10-x---------|
E|----------------------------------------------|

[Parte 4 De 4]

G|--3---------------------5---------------------|
D|--3---------------------5---------------------|
A|--1-1-1-1-1-1-1-1-1-1-1-3-3-3-3-3-3-3-3-3-3-3-|
E|----------------------------------------------|

G|--3---------------------5---------------------|
D|--3---------------------5---------------------|
A|--1-1-1-1-1-1-1-1-1-1-1-3-3-3-3-3-3-3-3-3-3-x-|
E|----------------------------------------------|

[Riff] 

G|---------7--7------------------7--------------|
D|-----5h7-------7-5-5h7-----5h7----3-2---------|
A|--5----------------------5------------3--5----|
E|----------------------------------------------|
00:00 / 00:00
Outros vídeos desta música
Repetir
Outros vídeos desta música
Composição de Adrian Smith / Bruce Dickinson
Colaboração e revisão:
  • Samuel Chacon
984 exibições

0 comentários

Ver todos os comentários

Entre para oCifra Club PRO

Tenha acesso a benefícios exclusivos no App e no Site

  • Chega de anúncios

  • Prioridade de compra em lançamentos

  • Mais recursos no app do Afinador

  • Atendimento Prioritário

  • Descontos nos produtos Cifra Club

  • Ajude a produzir mais conteúdo

00:00 / 00:00
Capítulos
  • Apresentação
  • Tocando a Música
  • Ensinando Introdução
  • Ensinando Verso 1
  • Ensinando Pré-Refrão 1
  • Ensinando Refrão 1
  • Ensinando Riff
  • Ensinando Verso 2
  • Ensinando Pré-Refrão 2
  • Ensinando Refrão 2
  • Ensinando Solos
  • Ensinando Refrão Final
  • Ensinando Final
  • Encerramento

Cifra Club Pro

Aproveite o Cifra Club com benefícios exclusivos e sem anúncios
Cifra Club Pro
Aproveite o Cifra Club com benefícios exclusivos e sem anúncios
OK