Cifra Club

Wasting love (live)

Iron Maiden

Cifra: Principal
exibições 73.179
Tom: C
A INTRO COMEÇA COM TRES GUITARRAS SOLO:  
 
 
Dave Murray & Janick Gers_intro    
  
E|-----------------------------7-5-------------------  
B|--5---7-8------10(12)---7------7-8-7-8-----5------- 
G|-------------5----------------------------------7--     
D|---------------------------------------------------  
A|---------------------------------------------------  
E|--------------------------------------------------- 

E|--------------------------10-8---------------------  
B|--5---7-8------10(12)---7-----12-10-12-10----6-5--- 
G|-------------5-------------------------------------     
D|---------------------------------------------------  
A|---------------------------------------------------  
E|--------------------------------------------------- 
  
E|-----------------------------7-5-------------------  
B|--5---7-8------10(12)---7------7-8-7-8-----5------- 
G|-------------5----------------------------------7--     
D|---------------------------------------------------  
A|---------------------------------------------------  
E|--------------------------------------------------- 

E|--------------------------10-8---------------------  
B|--5---7-8------10(12)---7-----12-10-12-10----6-5--- 
G|-------------5-------------------------------------     
D|---------------------------------------------------  
A|---------------------------------------------------  
E|--------------------------------------------------- 
 
Verse*1*        faz 4x 
  
E|------------------------------------------------------------  
B|-------------------------3-------------------------------3--  
G|---------0-----------0-------0-----------0-----------0------ 
D|-----4-------4-----4---4---4---4-----4-----4---4---4---4----  
A|---2---2---2---2-3-----------------2---2-----2---3----------  
E|-0-------------------------------0--------------------------  
             
  
verse*2*        faz 2x 
  
E|----------------------------------------  
B|---------1---------------3-------------- 
G|-----0-----0---0-----0-------0---------- 
D|---2---2-----2-----4---4---4---4--------  
A|-0---------------0----------------------  
E|----------------------------------------  
  
 Verse*1*        faz 3x 
  
E|------------------------------------------------------------  
B|-------------------------3-------------------------------3--  
G|---------0-----------0-------0-----------0-----------0------ 
D|-----4-------4-----4---4---4---4-----4-----4---4---4---4----  
A|---2---2---2---2-3-----------------2---2-----2---3----------  
E|-0-------------------------------0--------------------------  
 
 verse*2*        faz 2x 
  
E|----------------------------------------  
B|---------1---------------3-------------- 
G|-----0-----0---0-----0-------0---------- 
D|---2---2-----2-----4---4---4---4--------  
A|-0---------------0----------------------  
E|----------------------------------------  
 
                      1 vez 
E|------------------------------------------------------------  
B|-------------------------3-------------------------------3--  
G|---------0-----------0-------0-----------0-----------0------ 
D|-----4-------4-----4---4---4---4-----4-----4---4---4---4----  
A|---2---2---2---2-3-----------------2---2-----2---3----------  
E|-0-------------------------------0--------------------------  
 
 
 
 REFRAO: 
E|---------------------------------------- 
B|---------------------------------------- 
G|-9---5------7-----5-5----3-3------------  
D|-9---5------7-----5-5----3-3------------  
A|-7---3------5-----3-3----1-1------------  
E|----------------------------------------  
 
E|---------------------------------------- 
B|---------------------------------------- 
G|---9----5------7------------------------  
D|-2-9----5------7-----5555-3333----------  
A|-2-7----3------5-----5555-3333----------  
E|-0-------------------3333-1111----------  
 
E|---------------------------------------- 
B|---------------------------------------- 
G|---9----5------7----------7-7-----------  
D|-2-9----5------7-----5-5--7-7-----------  
A|-2-7----3------5-----5-5--5-5-----------  
E|-0-------------------3-3----------------  
      
E|---------------------------------------- 
B|---------------------------------------- 
G|---9----5------7-------5---------------- 
D|-2-9----5------7-------5----------------  
A|-2-7----3------5-------3----------------  
E|-0--------------------------------------  
 
Bridge 2:  
  
E|---------------3-|              E|------------------3-|            E|--------------------|  
B|---------------3-|              B|------------------3-|            B|--------------------|  
G|-----0-----0---0-| <-- 1 vez    G|-----0-----0------0-| <-- 2vezes G|-----0-----0--------| <-- 1 vez  
D|---4-----2-----2-|              D|---4-----2--------2-|            D|---4-----2----------|  
A|-5-----3-------2-|              A|-5-----3----------2-|            A|-5-----3------------|  
E|-------------0---|              E|-------------0-0----|            E|--------------------|  
  
 
  
   Verse*1*        faz 2x 
  
E|------------------------------------------------------------  
B|-------------------------3-------------------------------3--  
G|---------0-----------0-------0-----------0-----------0------ 
D|-----4-------4-----4---4---4---4-----4-----4---4---4---4----  
A|---2---2---2---2-3-----------------2---2-----2---3----------  
E|-0-------------------------------0--------------------------  
             
  
verse*2*        faz 2x 
  
E|----------------------------------------  
B|---------1---------------3-------------- 
G|-----0-----0---0-----0-------0---------- 
D|---2---2-----2-----4---4---4---4--------  
A|-0---------------0----------------------  
E|----------------------------------------  
  
 Verse*1*        1 vez  
  
E|------------------------------------------------------------  
B|-------------------------3-------------------------------3--  
G|---------0-----------0-------0-----------0-----------0------ 
D|-----4-------4-----4---4---4---4-----4-----4---4---4---4----  
A|---2---2---2---2-3-----------------2---2-----2---3----------  
E|-0-------------------------------0--------------------------  
 
 verse*2*         faz 2 vezes 
  
E|----------------------------------------  
B|---------1---------------3-------------- 
G|-----0-----0---0-----0-------0---------- 
D|---2---2-----2-----4---4---4---4--------  
A|-0---------------0----------------------  
E|----------------------------------------  
 
                      1 vez 
E|------------------------------------------------------------  
B|-------------------------3-------------------------------3--  
G|---------0-----------0-------0-----------0-----------0------ 
D|-----4-------4-----4---4---4---4-----4-----4---4---4---4----  
A|---2---2---2---2-3-----------------2---2-----2---3----------  
E|-0-------------------------------0--------------------------  
 
  REFRAO: 
E|---------------------------------------- 
B|---------------------------------------- 
G|-9---5------7-----5-5----3-3------------  
D|-9---5------7-----5-5----3-3------------  
A|-7---3------5-----3-3----1-1------------  
E|----------------------------------------  
 
E|---------------------------------------- 
B|---------------------------------------- 
G|---9----5------7------------------------  
D|-2-9----5------7-----5555-3333----------  
A|-2-7----3------5-----5555-3333----------  
E|-0-------------------3333-1111----------  
 
E|---------------------------------------- 
B|---------------------------------------- 
G|---9----5------7----------7-7-----------  
D|-2-9----5------7-----5-5--7-7-----------  
A|-2-7----3------5-----5-5--5-5-----------  
E|-0-------------------3-3----------------  
      
E|---------------------------------------- 
B|---------------------------------------- 
G|---9----5------7-------5---------------- 
D|-2-9----5------7-------5----------------  
A|-2-7----3------5-------3----------------  
E|-0--------------------------------------  
  
Bridge 2:  
  
E|---------------3-|              E|------------------3-|            E|--------------------|  
B|---------------3-|              B|------------------3-|            B|--------------------|  
G|-----0-----0---0-| <-- 1 vez    G|-----0-----0------0-| <-- 2vezes G|-----0-----0--------| <-- 1 vez  
D|---4-----2-----2-|              D|---4-----2--------2-|            D|---4-----2----------|  
A|-5-----3-------2-|              A|-5-----3----------2-|            A|-5-----3------------|  
E|-------------0---|              E|-------------0-0----|            E|--------------------|  
  
Dave Murray & Janick Gers igual intro soh muda o fim   
  
E|-----------------------------7-5-------------------  
B|--5---7-8------10(12)---7------7-8-7-8-----5------- 
G|-------------5----------------------------------7--     
D|---------------------------------------------------  
A|---------------------------------------------------  
E|--------------------------------------------------- 

E|--------------------------10-8---------------------  
B|--5---7-8------10(12)---7-----12-10-12-10----6-5--- 
G|-------------5-------------------------------------     
D|---------------------------------------------------  
A|---------------------------------------------------  
E|--------------------------------------------------- 
  
E|-----------------------------7-5-------------------  
B|--5---7-8------10(12)---7------7-8-7-8-----5------- 
G|-------------5----------------------------------7--     
D|---------------------------------------------------  
A|---------------------------------------------------  
E|--------------------------------------------------- 

E|---------------------------------------------------  
B|--5---7-8------10(12)---7-------------------------- 
G|-------------5----------------5-5---7-7------------     
D|------------------------------5-5---7-7------------  
A|------------------------------3-3---5-5------------  
E|--------------------------------------------------- 
  
  
Bridge 3: agora eh o pre' solo   que eh abafado nas duas guitarras! 
  
E|----------------------------------------------  
B|------------------------1---------------------  
G|----------0---------0-------------------------  
D|-----4------4-----4---4-----------------------   <-- 4 vezes  
A|---2---2------2-3-----------------------------  
E|-0-------------------------------------------- 
  
agora eh o solo de Janick Gers junto tambem com a base de Dave Murray: 
 
 base: 
E|------------------------------------------------  
B|------------------------------------------------ 
G|----------9----5-5----------7---5-5--3-3--------   <-- 4 vezes  
D|----------9----5-5----------7---5-5--3-3--------  
A|--x-x-x-x-7----3-3--x-x-x-x-5---3-3--1-1--------  
E|------------------------------------------------ 
 
 Solo:   
E|-8-----------------------------------------15----14----12----12~~~---------  
B|---11-9P8H9~----------------------------12----12----12----12-------15-14-12  
G|-------------9-7-----------------------------------------------------------  
D|-----------------10-9-10-9-7----7----7~------------------------------------  
A|-----------------------------11---11---------------------------------------  
E|---------------------------------------------------------------------------  
  
  
E|----12----14----15----14----15----17----19~~~---19-17-15-14-15~~-----------  
B|-12----12----12----12----12----12----12------------------------------------  
G|---------------------------------------------------------------------------  
D|---------------------------------------------------------------------------  
A|---------------------------------------------------------------------------  
E|---------------------------------------------------------------------------  
  
  
E|-19-17-15-14-------19-17-15-14-15-14---------------------15-14-12----12----  
B|-------------15~~--------------------17-15-17~~-15~~--12----------15----15-  
G|---------------------------------------------------------------------------  
D|---------------------------------------------------------------------------  
A|---------------------------------------------------------------------------  
E|---------------------------------------------------------------------------  
  
E|---------------------------------------------------------------19~~~-17~~~~  
B|-13-12-13-12---------------------------------------------------------------   
G|-------------14----12-13-12---12-13-12---12-13-12---12-13-12---------------  
D|---------------------------------------------------------------------------  
A|---------------------------------------------------------------------------  
E|---------------------------------------------------------------------------   
  
  de novo o refrao!mas duas vezes!!! 
  REFRAO: 
E|---------------------------------------- 
B|---------------------------------------- 
G|-9---5------7-----5-5----3-3------------  
D|-9---5------7-----5-5----3-3------------  
A|-7---3------5-----3-3----1-1------------  
E|----------------------------------------  
 
E|---------------------------------------- 
B|---------------------------------------- 
G|---9----5------7------------------------  
D|-2-9----5------7-----5555-3333----------  
A|-2-7----3------5-----5555-3333----------  
E|-0-------------------3333-1111----------  
 
E|---------------------------------------- 
B|---------------------------------------- 
G|---9----5------7----------7-7-----------  
D|-2-9----5------7-----5-5--7-7-----------  
A|-2-7----3------5-----5-5--5-5-----------  
E|-0-------------------3-3----------------  
      
E|---------------------------------------- 
B|---------------------------------------- 
G|---9----5------7-------3333---9999------ 
D|-2-9----5------7-------3333---9999------  
A|-2-7----3------5-------1111---7777------  
E|-0--------------------------------------  
 
*****************************************       
       
       REFRAO do final q tem junto um solinho  
final ao mesmo tempo!aqui eu vou fazer numeros  
em cada parte do refrao pra vc saber onde entrar  
e parar! 
 
 base:igual o refrao! 
parte*1* 
E|---------------------------------------- 
B|---------------------------------------- 
G|-9---5------7-----5-5----3-3------------  
D|-9---5------7-----5-5----3-3------------  
A|-7---3------5-----3-3----1-1------------  
E|----------------------------------------  
     *2* 
E|---------------------------------------- 
B|---------------------------------------- 
G|---9----5------7------------------------  
D|-2-9----5------7-----5555-3333----------  
A|-2-7----3------5-----5555-3333----------  
E|-0-------------------3333-1111----------  
     *3* 
E|---------------------------------------- 
B|---------------------------------------- 
G|---9----5------7----------7-7-----------  
D|-2-9----5------7-----5-5--7-7-----------  
A|-2-7----3------5-----5-5--5-5----------  
E|-0-------------------3-3----------------  
     *4* 
E|---------------------------------------- 
B|---------------------------------------- 
G|---9----5------7-------5---------------- 
D|-2-9----5------7-------5----------------  
A|-2-7----3------5-------3----------------  
E|-0--------------------------------------  
  
agora os numeros sao as partes da base:solo de Dave Murray 
  *1*     
E|-----------------17(19)--17(19)--17(19)--17-15-13--13-- 
B|-------------------------------------------------------  
G|-------------------------------------------------------  
D|-------------------------------------------------------  
A|-------------------------------------------------------  
E|-------------------------------------------------------   
  *2* 
E|-------------------13------13-----13-------------------  
B|-------------------------------------------------------  
G|---------------14------14-----14-------14(16)~~-------- 
D|-------------------------------------------------------  
A|-------------------------------------------------------  
E|-------------------------------------------------------   
  *3* 
 
E|-------------------------------------------------------  
B|-----------------------------12-13-14-13-12-10/12  
G|-------------------------------------------------------  
D|------------------------------------------------------- 
A|-------------------------------------------------------  
E|-------------------------------------------------------   
  *4* 
E|------------10---12----------------12~~~~--10~~~~~~~~~~  
B|--------12---------------------------------------------  
G|-------------------------------------------------------  
D|-------------------------------------------------------  
A|-------------------------------------------------------  
E|-------------------------------------------------------   
  
      FIM: 
E|---------------3-|                
B|---------------3-|                
G|-----0-----0---0-|    
D|---4-----2-----2-|                
A|-5-----3-------2-|                
E|-------------0---|       
 
Acordes para:

    0 comentários

      mostrar mais comentários

      Conseguiu tocar?

      4tocaram0ainda não

      Grave um vídeo tocando Wasting love (live) e mande pra gente!

      00:00 / 00:00
      outros vídeos desta música
      repetirqualidadeautomática
      Outro vídeos desta música
        00:00 / 00:00
        automática
        OK