Notificações Amigos pendentes

      Iron Maiden

      Wasting Love

      41.338 exibições
      (intro)
      
      -----9--------5----------7-------------------------------------------------------
      -----9--------5----------7--------------9----------------------------------------
      -----7-7-7----3-3-3------5-5-5------------12-10-9-10-9---------------------------
      ------------------------------------------------------12-10----------------------
      
      ------------------------------------------12-----------------------------------
      -------------------------------------12-14--14-12h14---------------------------
      -------------------------------------------------------------------------------
      -----------0-----------0-------------------------------------------------------
      
      ------------------------------------------------------|----------------------
      ------------------------------------------------------|----------------------
      -7-5-7--7--7-7--3--3-3-3--3--5--5-5-5----3--3---5--5--|----------------------
      ------------------------------------------------------|--0--------0----------
      
      -----0-----------------------------------------------------------------------
      -0-2---2---0-/2----0-2-0-----------------------------------------------------
      -------------------------2-0-------------------------------------------------
      ------------------------------0--------0---------0-0----------0-------0-0----
      
      -------------------------------0---------------------------------------------
      --------------------------0-2----2--0----------------------------------------
      --0----------5--7--0-----------------------------5-7-------------------------
      ---------------------------------------0--------------0--------0--------0-0--
      
      ---------------------------------------------0-------------------------------
      -----------------------------------------0-2---2-0-2-------------------------
      -------------------0-------5--7--0-------------------------------------------
      -0-------0-0-----------------------------------------------0-----------------
      
      -----------------------------------------------------------------------------
      -----------------------------------------------------------------------------
      -7--7--3--3-3-3-3---5--5-5-5-5-->-->--->-->---7-7-7-7-7--7--3--3-3-3-3----5--
      -0------------------------------3--3---1--1----------------------------------
      
      -----------------------------------------------------------------------------
      -----------------------------------------------------------------------------
      -5-5-5-5---------------------------7--7-7-7--7-7--3--3-3-3--3--5--5-5-5--5-0-
      ---------3-3-3-3--2-2-2-2--0--0-0--------------------------------------------
      
      -----------------------------------------------------------------------------
      --------->--->---------------------------------------------------------------
      ->--->---5---5-------------7--7-7--3--3-3-3--3-3--5--5-5-5---3---------/5--3-
      -3---3------------0---0-0----------------------------------------------------
      
      -----------------------------------------------------------------------------
      -----------------------------------------------------------------------------
      -0-----------/5--3--0-----------/5--3--0--------/5--3--0--------------------- 
      ----3--0--------------3--0-0-------------3--0------------3-0------0-------0--
      
      --------------------------------------0--------------------------------------
      ----------------------------------0-2---2-0----------------------------------
      -----------0---------5-7--0-------------------------------------0--------5-7-
      --0-0----------------------------------------0--------0-0--------------------
      
      ---------0-------------------------------------------------------------------
      -----0-2---2-0-2-------------------------------------------------------------
      -0-------------------5-7--------7--3---3-3-3---3---5--5-5-5--5--->-->--->-->-
      --------------------------0---0-0--------------------------------3--3---1--1-
      
      -----------------------------------------------------------------------------
      -----------------------------------------------------------------------------
      ---------7--7-7--3--3-3-3--3-3--5--5-5-5--5---------------------------7--7-7-
      -0--0-0--------------------------------------3-3-3-3--2-2-2-2--0--0-0--------
      
      -----------------------------------------------------------------------------
      -------------------------------------->--->----------------------------------
      -3--3-3-3---3-3--5--5-5-5-5--->--->---5---5-----------------7--7-7-7--3--3-3-
      ------------------------------3---3---------------0---0-0---0----------------
      
      -----------------------------------------------------------------------------
      -----------------------------------------------------------------------------
      -3--3-3--5--5-5-5--3----/5--3--0----------/5---3--0--------/5--3--0----------
      ----------------------------------3--0---------------3--0-----------3-0--0-0-
      
      -----------------------------------------------------------------------------
      -----------------------------------------------------------------------------
      -5---/5--3--0-----7---------3--3-3-3--3-3--5--5-5-5--5-5---7-7-7-7--5-5-5-5--
      --------------3---0----------------------------------------------------------
      
      -----------------------------------------------------------------------------
      ---------------------------------------------------------9-7-----------------
      ----------7--7-7-7--7-7---3--3-3-3--3-3--5--5-5-5--5-5-------10-9-10-9-7-5-7-
      --0--0-0---------------------------------------------------------------------
      
      -----------------------------------------------------------------------------
      ----------------------------------------9-7----------------------------------
      -7-7-7--7-7--3--3-3-3--3---5--5-5-5--5------10-9-10-9-7-5-7-7-7--7-7--3--3-3-
      -----------------------------------------------------------------------------
      
      -------------------------------------------------------0--------------0----7\
      --------------------------->-->--->-->----------4--------4------.---4---4----
      -3---3-3---5--5-5-5--5-5---3--3---5--5-------2-----2--------2---3------------
      -------------------------------------------0---------------------------------
                                                                 (. = staccatto)
      
      -----------0------------0----7\--------------0------------0----7\------------
      -----4-------4-----.--4---4------------4-------4-----.--4---4-----------4----
      ---2---2-------2---3-----------------2---2-------2---3----------------2---2--
      -0---------------------------------0-------------------------------0---------
      
      -0--------------0----7\------------------------------------------------------
      ----4------.--4---4----------h----------------->-->--------------------->-->-
      -------2---3----------------5-7--7-7-7-7--7-7--3--3----0-0--0-0-0--0-0--5--5-
      -----------------------------------------------1--1---------------------3--3-
      
      -----------------------------------------------------------------------------
      -->-->--------------------->-->--------------------->-->--->-->--------------
      --2--2----7--7-7-7-7--7-7--3--3----0-0--0-0-0--0-0--5--5---2--2---7--7-7-7-7-
      --0--0---------------------1--1---------------------3--3---0--0--------------
      
      -----------------------------------------------------------------------------
      ------>-->--------------------->-->--->-->---------------------->-->---------
      -7-7--3--3----0-0--0-0-0--0-0--5--5---2--2-----7--7-7-7-7--7-7--3--3----0-0--
      ------1--1---------------------3--3---0--0----------------------1--1---------
      
      -----------------------------------------------------------------------------
      ------------->-->--->-->-----------------------------------------------------
      -0-0-0--0-0--5--5---2--2----/7---7--3--3-3-3--3-3--5--5-5-5--5-5--->-->-->-->
      -------------3--3---0--0-------------------------------------------3--3--1--1
      
      -----------------------------------------------------------------------------
      -----------------------------------------------------------------------------
      ----------7--7-7--3--3-3-3--3-3--5--5-5-5--5-5----------------------------7--
      --0--0-0----------------------------------------3-3-3-3--2-2-2-2--0--0-0-----
      
      -----------------------------------------------------------------------------
      ---------------------------------------->-->---------------------------------
      --3---3-3-3---3-3--5--5-5-5--5-5-->-->--5--5-----------7--7-7---3--3-3-3--3-3
      ----------------------------------3--3---------0--0-0------------------------
      
      -----------------------------------------------------------------------------
      -----------------------------------------------------------------------------
      --5-5-5-5-5--5-5------------2-2-2-2-----------7--7-7-7---7-7---3--3-3-3--3-3-
      -------------------3-3-3-3------------0--0-0---------------------------------
      
      -----------------------------------------------------------------------------
      -----------------------------------------------------------------------------
      -5--5-5-5--5-5-->-->---->-->------------7--7-7-7--7-7--3--3-3-3--3-3--5--5-5-
      ----------------3--3----1--1----0--0-0---------------------------------------
      
      -----------------------------------------------------------------------------
      -----------------------------------------------------------------------------
      -5--5-5---------------------------7--7-7-7--7-7--3--3-3-3--3-3--5--5-5-5--5-5
      ---------3-3-3-3--2-2-2-2--0--0-0--------------------------------------------
      
      ---------------------------------------------------------------------------||
      ---------->-->-------------------------------------------------------------||
      ->-->--(0)5--5------------7---3--3-3-3--3---5-----3-------/5--3--0---------||
      -3--3--------------0------------------------------------------------3--0---||
      
      
        Composição: Bruce Dickinson / Janick GersColaboração e revisão:
        • Leo

        Comentários 1

        140 .
        • Lucas Lucas: Em 11/01/2016 11:10

          Leo. Por favor, coloque as notas correspondente as linhas no topo das cifras. Facilita e treina qm ñ manja de notas..

        140 cancelar
        0:00 / 0:00

        Capítulos

          3 versões de baixo exibições contribuição e correção
          1 versão de bateria exibições contribuição e correção
          1 versão de Guitar Proformatodownloadscontribuição
          1 versão de partiturasformatodownloadscontribuição
          play/pausefechar subir/descer velocidade
          6ª corda E5ª corda A4ª corda D3ª corda G2ª corda B1ª corda E
            acordes
            publicidade
            fechar
            ok