Cifra Club

Aprenda

When The Wild Wind Blows

Iron Maiden

Tab de baixo: Principal
Intro: 
G|----------9-------7------9---7-----------9-------7-----7h9-----------------| 
D|--10----9-----9-------9----9----------9------9-------9---------------------| 
A|--10-----------------------------------------------------------------------| 
E|--8------------------------------0-----------------------------------------| 

G|----------9-------7------9---7-----------9-------7-------------------------| 
D|--10----9-----9-------9----9----------9------9-------9-10------------------| 
A|--10-----------------------------------------------------------------------| 
E|--8------------------------------0-----------------------------------------| 

G|----------9-------7------9---7-----------9-------7-----7h9-----------------| 
D|--10----9-----9-------9----9----------9------9-------9---------------------| 
A|--10-----------------------------------------------------------------------| 
E|--8------------------------------0-----------------------------------------| 

G|----------9-------7------9---7-----------9-------5-----7-------------------| 
D|--10----9-----9-------9----9----------9------9-------5---------------------| 
A|--10-----------------------------------------------------------------------| 
E|--8------------------------------0-----------------------------------------|  

Intro / Riff Principal 1 - 2x: 
(00:46)
G|------9-------5---------------7-------9-------5---------------7------------| 
D|----9---9---5---5-----5-----7---7---9---9---5---5-----5-----7---7----------| 
A|--7-------3---------5---5-5-------7-------3---------5---5-5----------------| 
E|------------------3-------------------------------3------------------------| 

G|------9-------5---------------7-------2---2---2-------5-------7------------| 
D|----9---9---5---5-----5-----7---7---2---2---2---2---5---5---7---7----------| 
A|--7-------3---------5---5-5-------0---------------3-------5----------------| 
E|------------------3--------------------------------------------------------|   

Intro / Riff Principal 2: 
(01:21)
G|------9---------12--------5-----7----| 
D|----9---9----12----12---5---5-5---7--| 
A|--7-------10----------3---------5----| 
E|-------------------------------------| (2 x)

G|-----9---------12--------5-------7----| 
D|---9---9----12----12---5---5---7---7--| 
A|-7-------10----------3-------5-------7| 
E|--------------------------------------| (5x) 

G|----2---2---2-------5-------7------------|  
D|--2---2---2---2---5---5---7---7----------|  
A|0---------------3-------5----------------| 
E|-----------------------------------------|  

(00:55)
G|------9---------12--------5-----7----| 
D|----9---9----12----12---5---5-5---7--| 
A|--7-------10----------3---------5----| 
E|-------------------------------------|  

G|-----9---------12--------5-------7----| 
D|---9---9----12----12---5---5---7---7--| 
A|-7-------10----------3-------5-------7| 
E|--------------------------------------|  

G|------9---------12--------5-----7----| 
D|----9---9----12----12---5---5-5---7--| 
A|--7-------10----------3---------5----| 
E|-------------------------------------|  

G|-----9---------12---------5-----------| 
D|---9---9----12----12---5----5---------| 
A|-7-------10----------3---------5------| 
E|--------------------------------------|  

Riff 1: 
(02:14)
G|------9-------5---------------7-------9-------5---------------7------------| 
D|----9---9---5---5-----5-----7---7---9---9---5---5-----5-----7---7----------| 
A|--7-------3---------5---5-5-------7-------3---------5---5-5----------------| 
E|------------------3-------------------------------3------------------------| 

G|------9-------5---------------7-------2---2---2-------5-------7------------| 
D|----9---9---5---5-----5-----7---7---2---2---2---2---5---5---7---7----------| 
A|--7-------3---------5---5-5-------0---------------3-------5----------------| 
E|------------------3--------------------------------------------------------|   

G|----------------------------------| 
D|----------------------------------| 
A|--7-7-7-7-3-3-3-3---------5-5-5-5-| 
E|------------------3-3-3-3---------| (3x)

G|---------------------------------| 
D|---------------------------------|  
A|-0-0-0-0-0-0-0-0-3-3-3-3-5-5-5-5-| 
E|---------------------------------|  

(2:48)
G|---------------------------------------------------------------------| 
D|---------------------------5-----------------------------------------| 
A|--7-7-7-7---------3-3-3-3-----5---7-7-7-7---------3-3-3-3-5-5-5-5----| 
E|----------3-3-3-3-------------------------3-3-3-3--------------------| (6x)

G|----------------------------------------------------------------|  
D|---------------------------5------------------------------------|  
A|--7-7-7-7---------3-3-3-3-----5-0-0-0-0-0-0-0-0-3-3-3-3-5-5-5-5-|  
E|----------3-3-3-3-----------------------------------------------|  

G|---------------------------------------------------------------------| 
D|---------------------------5-----------------------------------------| 
A|--7-7-7-7---------3-3-3-3-----5---7-7-7-7---------3-3-3-3-5-5-5-5----| 
E|----------3-3-3-3-------------------------3-3-3-3--------------------|  

G|---------------------------------------------------------------------| 
D|---------------------------5-----------------------------------------| 
A|--7-7-7-7---------3-3-3-3-----5---7-7-7-7---------3-3-3-3--5---------| 
E|----------3-3-3-3-------------------------3-3-3-3--------------------|  

(3:40)
G|-----------------------------------------------------------------|  
D|-----------------------------------------------------------------|  
A|-7-7-7-7-7-7-7-7-7-7-7-7-7-999-9/3-3-3-3-3-3-3-3---------5-5-5-5-|  
E|-------------------------------------------------3-3-3-3---------|  

(5:03)
G|---------------------------------------|  
D|-------------------------------------5-|  
A|--7-7-7-10-10-10-10-3-3-3-3--------5---|  
E|----------------------------3-3-3------|  (8 x) 

(5:53)
G|-------------------------------------|  
D|-----------------------------------5-|  
A|--7-7-7--10-10-10--3-3-3---------5---|  
E|--------------------------3-3-3------| (4x)

(6:02) 
G|---------------------------------------|  
D|-------------------------------------5-|  
A|--7-7-7-10-10-10-10-3-3-3-3--------5---|  
E|----------------------------3-3-3------| (4x)

Ponte:
(6:22)
G|---------------------------------------------------------------------------| 
D|---------------------------------------------------------------------------| 
A|--3-3-3-3-3-3-3-3-5-5-5-5-5-5-5-5-3-3-3-3-3-3-3-3-7-7-7-7-7-7-7-7-3-3-3-3--| 
E|---------------------------------------------------------------------------| 

G|---------------------------------------------------------------------------| 
D|---------------------------------------------------------------------------| 
A|--3-3-3-3-5-5-5-5-5-5-5-5-3-3-3-3-3-3-3-3-5-5-5-5-5-5-5-5------------------| 
E|---------------------------------------------------------------------------|  

(6:42)

G|-----------------------|  
D|-----------------------|  
A|-7-777-777-777-10-9-10-|  
E|-----------------------|  

(7:06)
G|-------------------|  
D|-------------------|  
A|-3-3-3-3---------5-|  
E|---------3-3-3-3---|  

(7:26)
G|---------------------------------|  
D|---------------------------------|  
A|-3-3-3-3---------5-7-7-7-7-7-7-7-|  
E|---------3-3-3-3-----------------|  

(7:31)
G|------------------------------------------------------------------|  
D|------------------------------------------------------------------|  
A|-3-3-3-3---------5-5-5-5-7-7-7-7--3-3-3-3---------5-7-7-7-7-7-7-7-|  
E|---------3-3-3-3--------------------------3-3-3-3-----------------|   

(9:03)   
G|-------------------------------------------------|  
D|-------------------------------------------------|  
A|-7--7-7-7--7-7-7-7-7-7-10--10-10-5--5-5------5-5-|  
E|----------------------------------------3-3-3----| (2x)
  
G|-----------------------------------------------------|  
D|------------------------------------------7-5-4--2-0-|  
A|-7-7---7----7---7-9-7---7-9-10-9-7-5-3-2-------------|  
E|-----7----7---7-------7------------------------------| (2x) 
Composição de Steve Harris
Colaboração e revisão:
  • Matheus
1.836 exibições

0 comentários

Ver todos os comentários

Conseguiu tocar?

0 Tocaram 0 Ainda não

Grave um vídeo tocando When The Wild Wind Blows e nos envie!

00:00 / 00:00
Outros vídeos desta música
Repetir Qualidade Automático
Outros vídeos desta música
00:00 / 00:00
Automático

Cifra Club Pro

Aproveite o Cifra Club com benefícios exclusivos e sem anúncios
Cifra Club Pro
Aproveite o Cifra Club com benefícios exclusivos e sem anúncios
OK