Cifra Club

Wildest Dreams

Iron Maiden

Tab de baixo: Principal
Obs: O baixo desta música é tocado com a mão, mas quem quiser, fica perfeito com 
palheta

Riff Intro
G|--------------------|------------------|---------------------|
D|--------------------|------------------|---------------------|
A|--7------7----------|------------------|--7------7------7----|
E|--0------0----------|------------------|--0------0------0----|

                                                            
|------------------|--------------------|------------------|
|------------------|--------------------|------------------|
|------------------|--7------7----------|------------------|
|------------------|--0------0----------|------------------|


|---------------------|
|---------------------|
|--7------7------5----|
|--0------0------0----|


Riff 1
G|-------------------------|--------------------------|
A|-------------------------|--------------------------|
D|--7----7--7--7--7--7--7--|--7--7--7--7--7--7--7--7--|
E|-------------------------|--------------------------|

                                                      
--------------------------|--------------------------|
--------------------------|--------------------------|
--7--7--7--7--7--7--7--7--|--7--7--7--7--7--7--7--7--|
--------------------------|--------------------------|

                                                                            
--------------------------|--------------------------|---------------------|
--------------------------|--------------------------|---------------------|
--7--7--7--7--7--7--7--7--|--7--7--7--7--7--7--7--7--|--5------5------5----|
--------------------------|--------------------------|---------------------|
                                                                               
-------------------------|
-------------------------|
----5--5--5--5--5--5--5--|
-------------------------|


Riff 2a
G|-------------------------|------------------------|
D|-------------------------|------------------------|
A|-------------------------|------------------------|
E|--1--1--1----1--1--1--1--|----1--1----1--1--1--3--|

                                                                           
------------------------|------------------------|
------------------------|------------------------|
------------------------|------------------------|
----3--3----3--3--3--3--|----3--3----3--3--3--1--|


Riff 2b
G|------------------------|-----------------------|---------------------|
D|------------------------|-----------------------|---------------------|
A|------------------------|-----------------------|---------------------|
E|----1--1----1--1--1--1--|----1--1----1--1--1----|--3------3------0----|


Riff 3
G|-----------------------|--------------------------|
D|-----------------------|--------------------------|
A|-----------------------|--------------------------|
E|--5----5--5----5--5----|--5--5--5--5--5--5--5--5--|

                                                                           
-----------------------|-----------------------|
-----------------------|-----------------------|
-----------------------|-----------------------|
--5----5--5----5--1----|----1--1----3--3--3----|

                                                                           
-----------------------|--------------------------|-----------------------|
-----------------------|--------------------------|-----------------------|
-----------------------|--------------------------|-----------------------|
--5----5--5----5--5----|--5--5--5--5--5--5--5--5--|--5----5--5----5--1----|

Riff 4
G|-----------------------|-------------------------|
D|-----------------------|-------------------------|
A|--5--4----2------------|-------------------5-----|
E|---------------5----3--|----2--4--3--2--0-----5--|

Riff 5 (parte do 1° solo)
G|--------------------------|-------------------------|
D|--------------------------|-------------------------|
A|--------------------------|-------------------------|
E|--7--7--7--7--7--7--7--7--|----7--7--7--7--7--7--7--|

                                                                           
-------------------------|----------------------|-------------------------|
-------------------------|----------------------|-------------------------|
-------------------------|----------------------|-------------------------|
----7--7--7--7--7--7--7--|----7--7--5-5-5----7--|----7--7--7--7--7--7--7--|
                                                                              
-------------------------|-------------------------|
-------------------------|-------------------------|
-------------------------|-------------------------|
----7--7--7--7--7--7--7--|----7--7--7--7--7--7--7--|


-------------------------|
-------------------------|
-------------------------|
----7--7--7--7--7--7--7--|

Riff 6a
G|-------------------------|-------------------|
D|-------------------------|-------------------|
A|-------------------------|--3----------------|
E|----7--7--7--7--7--7--7--|-------------------|


                                                              
-------------------|-------------------|---------------------|
-------------------|-------------------|--7------6-----------|
--5----------------|-------------------|----------------7----|
-------------------|--0----------------|---------------------|


                                                             
-------------------|-------------------|--------------------|
-------------------|-------------------|---------------7----|
--3----------------|--5----------------|--------------------|
-------------------|-------------------|--0-----------------|


                                                              
----------------4----|-------------------|-------------------|
--6------7-----------|-------------------|-------------------|
---------------------|--3----------------|--5----------------|
---------------------|-------------------|-------------------|


                                                                    
---------------13--13--|--13------11------9----|-------------------|
-----------------------|-----------------------|-------------------|
-----------------------|-----------------------|--3----------------|
--0--------------------|-----------------------|-------------------|


                                                                     
-------------------|---------------13--13--|--13------14------16----|
-------------------|-----------------------|------------------------|
--5----------------|-----------------------|------------------------|
-------------------|--0--------------------|------------------------|

Riff 6b
G|---------------------|---------------------|---------------------|
D|---------------------|---------------------|---------------------|
A|--3------3------3----|--5------5------5----|--7------7------7----|
E|---------------------|---------------------|---------------------|

                                                                  
---------------------|---------------------|---------------------|
---------------------|---------------------|---------------------|
----7------7----7----|--3------3------3----|--5------5------5----|
---------------------|---------------------|---------------------|

                                                                       
---------------------|---------------------|--------------------------|
---------------------|---------------------|--------------------------|
--7------7------7----|----7------7----7----|--3--3--3--3--3--3--3--3--|
---------------------|---------------------|--------------------------|

                                                      
--------------------------|--------------------------|
--------------------------|--------------------------|
--5--5--5--5--5--5--5--5--|--7--7--7--7--7--7--7--7--|
--------------------------|--------------------------|

                                                      
--------------------------|--------------------------|
--------------------------|--------------------------|
--7--7--7--7--7--7--7--7--|--3--3--3--3--3--3--3--3--|
--------------------------|--------------------------|

                                                      
--------------------------|--------------------------|
--------------------------|--------------------------|
--5--5--5--5--5--5--5--5--|--7--7--7--7--7--7--7--7--|
--------------------------|--------------------------|
                                                                              
--------------------------|
--------------------------|
--7--7--7--7--7--7--7--7--|
--------------------------|
_____________________________________________________________________________ 
Tocar na ordem
Riff Intro 1X
Riff 1 3X
Riff 2a 3X
Riff 2b 1X
Riff 3 2X
Riff 1 3X
Riff 2a 3X
Riff 2b 1X
Riff 3 2X
Riff 4 1X
Riff 5 2X
Riff 6a 1X
Riff 6b 1X
Riff 3 4X
Riff 4 1X

Aqui tem a letra (na minha opinião, essa música é fácil o suficiente para tocar a linha do baixo e cantar ao mesmo tempo. Veja se consegue!)
-----------------------------------------------------------------------------
I'm going to organise some changes in my life
I'm gonna exorcise the demons of my past
I'm gonna take my car and hit the open road
I'm feeling ready to just open up and go

and I just feel I can be anything
but all my life I´ve wished to be
I fantasize just what I want to be
make my wildest dreams come true

I'm on my way
out on my own again
I'm on my way
out on the road again

but how I've been and how these things just used to be
how I've been stuck inside and full of misery
I get so disapointed deep inside myself
I couldn't find a way to break away the hell

when I'm feeling down and low
I found I'll never be the same again
i visualise what I am
and then it starts just what I'm gonna be

I'm on my way
out on my own again
I'm on my way
out on the road again

(solo)

(toca junto c/ a riff 6a)
I'm gonna break away
out on my own
gonna break away
out on my own

breaking awaaay

I'm on my way
out on my own again
(repete 3x)
I'm on my way
I'm gonna break away

_______________________________________________________
Contribuição: Fagner Assunção Ribeiro(far64@bol.com.br)
exibições 2.794
Composição: A. Smith

0 comentários

mostrar mais comentários

Conseguiu tocar?

0 tocaram 0 ainda não

Grave um vídeo tocando Wildest Dreams e mande pra gente!

00:00 / 00:00
outros vídeos desta música
repetir qualidade Automático
Outros vídeos desta música
00:00 / 00:00
Automático
OK