Canção para um grande amor

Isabella Taviani

Composição de: Isabella Taviani
tom: Bb
[Intro:] F7M C/E Dm7 Am7 Bb7M
         F/G G7(b9)

|-3/5-5-8-------------------------------8-----------------10/12-10---------------------------------|
|----------8-8------5-6-6-6-5--------6--------------5-5-------------8-8------5-6-6-6-5-------------|
|---------------5-7------------5-5/7----------5-6-8----------------------5-7-------------------5---|
|--------------------------------------------7-----------------------------------------5/7-5/7---5-|
|--------------------------------------------------------------------------------------------------|
|--------------------------------------------------------------------------------------------------|

C7M                    Am7
Mas agora vai, deixa o vento te seduzir
        F7M
Deixa o novo sonho te invadir
      F/G                G7(b9)           C7M
E não volte nunca mais aqui pra me esperar
                 Am7
Agora vai, lança teu destino em outro mar
           F7M                F/G          G7(b9)
Não recues nunca pra ancorar, nunca pra duvidar

 C
Deixa o sol queimar a tua pele
Am7
Deixa o céu forrar a tua cama
F7M                  F/G         G7(b9)
Deixa amanhecer tua chama, teus desejos

Mas agora vai, porque há vida em outra dimensão
Porque há paz no outro coração
Porque com a gente não! Por que com a gente não?
Agora vai buscar os novos horizontes
Pousar no colo de outros ombros saciar a sede do teu corpo louco

Solo: Ab/Bb Bb7(b9) Eb7M Ab7M Cm7 Fm7 Bb7 Abm7 C#7 Fm7 Ab/Bb F/G C

|----------------------------------------------------8-----------------------------------9--|
|--------------8-8-8-11---------------------8-8-8-11----------------------------11-11-11----|
|------7-8-10-----------10-10-10-8-7-7-8-10------------10-8-10-10-10-8-7-7-8-10-------------|
|-8-10--------------------------------------------------------------------------------------|
|-------------------------------------------------------------------------------------------|
|-------------------------------------------------------------------------------------------|

|-----------------6-6-10/11-10-6/8-----------7-7--------------------------------------------|
|-9-9-9-7-6-6-7-9------------------6/8-6-8-5------------------------------------------------|
|-------------------------------------------------------------------------------------------|
|-------------------------------------------------------------------------------------------|
|-------------------------------------------------------------------------------------------|
|-------------------------------------------------------------------------------------------|


                 Am7
Vai pra sempre vai ser feliz é uma estrada sem fim
       F7M
Tens a força que eu nunca atingi
       F/G           G7(b9)           C
Tens a dor, mas ainda sei que tens a mim
Página 1 / 1

Letras e título
Acordes e artista

resetar configurações
OK