Como Nunca Antes

Isadora Pompeo

Composição de: Isadora Pompeo
tom: A
[Intro] A  F#m  C#m  G#m

[Primeira Parte]

           A
Eu ouvi o som
             F#m
Do rei a entrar
               C#m
E eis que ele vem
              G#m
Com fogo batizar

[Pré-Refrão]

        A         F#m
Vai surgir, algo novo
              C#m
Como flecha, vem rasgar
            G#m
O meu interior

[Refrão]

       A
Então vem, como nunca veio antes
   F#m
E vem como nunca veio antes
   C#m                          G#m
E vem como nunca veio antes, e vem

       A
Então vem, como nunca veio antes
   F#m
E vem como nunca veio antes
   C#m                          G#m
E vem como nunca veio antes, e vem

[Solo] A  F#m  C#m  G#m

E|------------------------------------------|
B|--5-4-------------------------------------|
G|------6-4--13-11-13-13-11-13-------13-11--|
D|-----------------------------11-11--------|
A|------------------------------------------|
E|------------------------------------------|

E|-----------------------9b-----------------|
B|--------------12-------12b13r12-12--------|
G|--13-13-11-13----13----------------11~----|
D|------------------------------------------|
A|------------------------------------------|
E|------------------------------------------|

E|--12b-------------------------------------|
B|--15b17r15--12~---------------------------|
G|------------------------------------------|
D|------------------------------------------|
A|------------------------------------------|
E|------------------------------------------|

[Primeira Parte]

           A
Eu ouvi o som
             F#m
Do rei a entrar
               C#m
E eis que ele vem
              G#m
Com fogo batizar

[Pré-Refrão]

        A         F#m
Vai surgir, algo novo
              C#m
Como flecha, vem rasgar
            G#m
O meu interior

        A         F#m
Vai surgir, algo novo
              C#m
Como flecha, vem rasgar
            G#m
O meu interior

[Refrão]

       A
Então vem, como nunca veio antes
   F#m
E vem como nunca veio antes
   C#m                          G#m
E vem como nunca veio antes, e vem

       A
Então vem, como nunca veio antes
   F#m
E vem como nunca veio antes
   C#m                          G#m
E vem como nunca veio antes, e vem

[Ponte]

                A
Não me deixe ficar
             F#m
Sem o teu tocar
             C#m
Não me deixe ir
           G#m
Sem te sentir

                A
Não me deixe ficar
             F#m
Sem o teu tocar
             C#m
Não me deixe ir
           G#m
Sem te sentir

[Refrão]

       A
Então vem, como nunca veio antes
   F#m
E vem como nunca veio antes
   C#m                          G#m
E vem como nunca veio antes, e vem

   A
E vem, como nunca veio antes
   F#m
E vem como nunca veio antes
   C#m                          G#m
E vem como nunca veio antes, e vem

[Ponte]

                A
Não me deixe ficar
             F#m
Sem o teu tocar
             C#m
Não me deixe ir
           G#m
Sem te sentir

                A
Não me deixe ficar
             F#m
Sem o teu tocar
             C#m
Não me deixe ir
           G#m
Sem te sentir
Página 1 / 1

Letras e título
Acordes e artista

resetar configurações
OK