Cifra Club

Ousado Amor

Isaías Saad

Cifra: Principal (violão e guitarra)
exibições 259.943
Tom: Bm (forma dos acordes no tom de Am) Capotraste na 2ª casa
[Intro]  Am7  G  F9  C9
         Am7  G  F9  C9

(Solo sem capotraste)

E|-14-14-14-14-13-13-13-13-11-11-------|
B|-------------------------------14-11-|
G|-------------------------------------|
D|-------------------------------------|
A|-------------------------------------|
E|-------------------------------------|

E|-16-16-16-16-14-14-13-13-11-11-------|
B|-------------------------------14-11-|
G|-------------------------------------|
D|-------------------------------------|
A|-------------------------------------|
E|-------------------------------------|

[Primeira Parte]

Am7              G
  Antes de eu falar
             F9
Tu cantavas sobre mim
Am7             G          F9
  Tu tens sido tão, tão bom pra mim
Am7                 G
  Antes de eu respirar
              F9
Sopraste tua vida em mim
Am7             G          F9
  Tu tens sido tão, tão bom pra mim

[Refrão]

        Am7         G
Oh, impressionante, infinito
   F9           C9
Ousado amor de Deus
         Am7        G
Oh, que deixa as noventa e nove
 F9              C9
Só pra me encontrar
               Am7             G
Não posso comprá-lo e nem merecê-lo
         F9          C9
Mesmo assim se entregou
        Am7         G
Oh, impressionante, infinito
   F9           C9
Ousado amor de Deus

[Solo]  Am7  G  F9  C9
        Am7  G  F9  C9

(Solo sem capotraste)

E|-14-14-14-14-13-13-13-13-11-11-------|
B|-------------------------------14-11-|
G|-------------------------------------|
D|-------------------------------------|
A|-------------------------------------|
E|-------------------------------------|

E|-16-16-16-16-14-14-13-13-11-11-------|
B|-------------------------------14-11-|
G|-------------------------------------|
D|-------------------------------------|
A|-------------------------------------|
E|-------------------------------------|

[Segunda Parte]

Am7           G
  Inimigo eu fui
                F9
Mas teu amor lutou por mim
Am7             G          F9
  Tu tens sido tão, tão bom pra mim
Am7            G
  Não tinha valor
            F9
Mas tudo pagou por mim
Am7             G          F9
  Tu tens sido tão, tão bom pra mim

[Refrão]

        Am7         G
Oh, impressionante, infinito
   F9           C9
Ousado amor de Deus
         Am7        G
Oh, que deixa as noventa e nove
 F9              C9
Só pra me encontrar
               Am7             G
Não posso comprá-lo e nem merecê-lo
         F9          C9
Mesmo assim se entregou
        Am7         G
Oh, impressionante, infinito
   F9           C9
Ousado amor de Deus

[Solo]  Am7  G  F9  C9
        Am7  G  F9  C9

(Solo sem capotraste)

E|-14-14-14-14-13-13-13-13-11-11-------|
B|-------------------------------14-11-|
G|-------------------------------------|
D|-------------------------------------|
A|-------------------------------------|
E|-------------------------------------|

E|-16-16-16-16-14-14-13-13-11-11-------|
B|-------------------------------14-11-|
G|-------------------------------------|
D|-------------------------------------|
A|-------------------------------------|
E|-------------------------------------|

Am7                 G
  Traz luz para as sombras
           F9
Escala montanhas
              C9
Pra me encontrar
Am7          G
  Derruba muralhas
               F9
Destrói as mentiras
              C9
Pra me encontrar
Am7                 G
  Traz luz para as sombras
           F9
Escala montanhas
              C9
Pra me encontrar
Am7          G
  Derruba muralhas
               F9
Destrói as mentiras
              C9
Pra me encontrar

[Refrão]

        Am7         G
Oh, impressionante, infinito
   F9           C9
Ousado amor de Deus
         Am7        G
Oh, que deixa as noventa e nove
 F9              C9
Só pra me encontrar
               Am7             G
Não posso comprá-lo e nem merecê-lo
         F9          C9
Mesmo assim se entregou
        Am7         G
Oh, impressionante, infinito
   F9           C9
Ousado amor de Deus

[Final]  Am7  G  F9  C9
         Am7  G  F9  C9

(Solo sem capotraste)

E|-14-14-14-14-13-13-13-13-11-11-------|
B|-------------------------------14-11-|
G|-------------------------------------|
D|-------------------------------------|
A|-------------------------------------|
E|-------------------------------------|

E|-16-16-16-16-14-14-13-13-11-11-------|
B|-------------------------------14-11-|
G|-------------------------------------|
D|-------------------------------------|
A|-------------------------------------|
E|-------------------------------------|
Acordes para:
    Colaboração e revisão:

    0 comentários

      mostrar mais comentários

      Conseguiu tocar?

      34tocaram26ainda não

      Grave um vídeo tocando Ousado Amor e mande pra gente!

      00:00 / 00:00
      outros vídeos desta música
      repetirqualidadeAutomático
      Outro vídeos desta música
        00:00 / 00:00
        OK