Cifra Club

Aprenda

Ousado Amor

Isaías Saad

Cifra: Versão 3 (violão e guitarra)
Tom: Em
[Intro]

  Em7      D4  D   C9 C9 D5 G 
E|---3-3-3-3-2-2-2-2-0-0---x-|
B|---3-3-3-3-3-3-3-3-3-3-3-0-|
G|---0-0-0-2-2-2-2-x-x-x-2-0-|
D|-2-------0-0-0-0-0-2-2-0-0-|
A|-2---------------3-3-3---2-|
E|-0-----------------------3-|

   Em9   D5 D4   C9 C9 D5 G 
E|-5-5-5-5-3-3-2-2-0-0---x--|
B|-3-3-3-3-3-3-3-3-3-3-3-0--|
G|-x-x-x-2-2-2-2-x-x-x-2-0--|
D|-0-0-0-0-0-0-0-2-2-2-0-0--|
A|-2-2-2---------3-3-3---2--|
E|-0-0-0-----------------3--|

[Primeira parte]

Em                D4
    Antes de eu falar
             C9
Tu cantavas sobre mim
Em               D4
    Tu tens sido tão
         C9
Tão bom     pra mim
Em                   D4
    Antes de eu respirar
              C9
Sopraste Tua vida em mim
Em               D4
    Tu tens sido tão
        C9
Tão bom    pra mim

[Refrão]

        Em         D4
Oh, impressionante, infinito
     C9           G
E ousado amor de Deus
         Em        D4
Oh, que deixa as noventa e nove

 C9              G
Só pra me encontrar
               Em             D4
Não posso comprá-lo,  nem merecê-lo
         C9          G
Mesmo assim se entregou
        Em         D4
Oh, impressionante, infinito
     C9           G
E ousado amor de Deus


[TAB - Solo Adaptado]

  Em7      D4  D   C9 C9 D5 G 

E|---3-3-3-3-2-2-2-2-0-0---x-|
B|---3-3-3-3-3-3-3-3-3-3-3-0-|
G|---0-0-0-2-2-2-2-x-x-x-2-0-|
D|-2-------0-0-0-0-0-2-2-0-0-|
A|-2---------------3-3-3---2-|
E|-0-----------------------3-|

   Em9   D5 D4   C9 C9 D5 G 

E|-5-5-5-5-3-3-2-2-0-0---x--|
B|-3-3-3-3-3-3-3-3-3-3-3-0--|
G|-x-x-x-2-2-2-2-x-x-x-2-0--|
D|-0-0-0-0-0-0-0-2-2-2-0-0--|
A|-2-2-2---------3-3-3---2--|
E|-0-0-0-----------------3--|

[Segunda parte]

Em             D4
    Inimigo eu fui
              C9
Mas Teu amor lutou por mim
Em               D4
    Tu tens sido tão
        C9
Tão bom    pra mim
Em              D4
    Não tinha valor
          C9
Mas tudo pagou por mim
Em               D4
    Tu tens sido tão
        C9
Tão bom    pra mim

[Refrão]

        Em         D4
Oh, impressionante, infinito

     C9           G
E ousado amor de Deus
         Em        D4
Oh, que deixa as noventa e nove
 C9              G
Só pra me encontrar
               Em             D4
Não posso comprá-lo,  nem merecê-lo
         C9          G
Mesmo assim se entregou
        Em         D4
Oh, impressionante, infinito
     C9           G
E ousado amor de Deus

[TAB - Solo Adaptado]

  Em7      D4  D   C9 C9 D5 G 

E|---3-3-3-3-2-2-2-2-0-0---x-|
B|---3-3-3-3-3-3-3-3-3-3-3-0-|
G|---0-0-0-2-2-2-2-x-x-x-2-0-|
D|-2-------0-0-0-0-0-2-2-0-0-|
A|-2--------------| 3-3-3---2-|
E|-0-----------------------3-|

   Em9   D5 D4   C9 C9 D5 G 

E|-5-5-5-5-3-3-2-2-0-0---x--|
B|-3-3-3-3-3-3-3-3-3-3-3-0--|
G|-x-x-x-2-2-2-2-x-x-x-2-0--|
D|-0-0-0-0-0-0-0-2-2-2-0-0--|
A|-2-2-2---------3-3-3---2--|
E|-0-0-0-----------------3--|

[Terceira parte]

Em
    Traz luz para as sombras

Escala montanhas, pra me encontrar

Derruba muralhas

Destrói as mentiras, pra me encontrar
                  D4
Traz luz para as sombras
           C9                   G
Escala montanhas  pra me encontrar
Em            D4
    Derruba muralhas
               C9                  G
Destrói as mentiras, pra me encontrar

Em                   D4
    Traz luz para as sombras
           C9                   G
Escala montanhas, pra me encontrar
Em            D4
    Derruba muralhas
               C9                  G
Destrói as mentiras, pra me encontrar
Em                   D4
    Traz luz para as sombras
           C9                   G
Escala montanhas, pra me encontrar
Em            D4
    Derruba muralhas
               C9                  G
Destrói as mentiras, pra me encontrar

[Refrão]

        Em         D4
Oh, impressionante, infinito
     C9           G
E ousado amor de Deus
         Em        D4
Oh, que deixa as noventa e nove
 C9              G
Só pra me encontrar
               Em             D4
Não posso comprá-lo,  nem merecê-lo
         C9          G
Mesmo assim se entregou
        Em         D4
Oh, impressionante, infinito
     C9           G
E ousado amor de Deus

[TAB - Solo Adaptado]

  Em7      D4  D   C9 C9 D5 G 

E|---3-3-3-3-2-2-2-2-0-0---x-|
B|---3-3-3-3-3-3-3-3-3-3-3-0-|
G|---0-0-0-2-2-2-2-x-x-x-2-0-|
D|-2-------0-0-0-0-0-2-2-0-0-|
A|-2---------------3-3-3---2-|
E|-0-----------------------3-|

   Em9   D5 D4   C9 C9 D5 G 

E|-5-5-5-5-3-3-2-2-0-0---x--|
B|-3-3-3-3-3-3-3-3-3-3-3-0--|
G|-x-x-x-2-2-2-2-x-x-x-2-0--|
D|-0-0-0-0-0-0-0-2-2-2-0-0--|
A|-2-2-2---------3-3-3---2--|
E|-0-0-0-----------------3--|
Composição de Caleb Culver / Cory Asbury / Ran Jackson
Colaboração e revisão:
  • Matheus Produções
5.444 exibições
  • Simplificar cifra
    • ½ Tom
    • Am
    • Bbm
    • Bm
    • Cm
    • C#m
    • Dm
    • Ebm
    • Em
    • Fm
    • F#m
    • Gm
    • G#m
  • Adicionar à lista

    0 comentários

    Mostrar mais comentários
    00:00 / 00:00
    outros vídeos desta música
    repetir qualidade Automático
    Outros vídeos desta música
    00:00 / 00:00
    Automático
    OK