Cifra Club

Canção Perfeita

Israel Novaes

Cifra: Principal
exibições 74.489
Tom: E
Intro:

Solo:

E|----------------------------------------------------|
B|-0-7/9-~-0-5/7-~-9-7/9-~-4h5p4-4-0-2-0--------------|
G|----- ----------------------------------------------|
D|----------------------------------------------------|
A|----------------------------------------------------|
E|----------------------------------------------------|

Riff 1
     B|----------7/9---------------------------------------|
     G|-------9--------------------------------------------|
     D|-9h11-----------------------------------------------|

E
  Eu ja falei de amor
              A
Já escrevi canções

Com caneta de alma
            C#m   Riff 2  B|-9h10p--|
Folha de emoções
                           B9   riff 1
A procura de uma canção perfeita
E                               A
  E nesta procura eu pude encontrar
                           C#m   Riff 2
Que amor acontece em particular
                             B9
Só quem ama sabe e pode entender.


Refrão:

E                               A
  Apenas num olhar sinto a melodia
                                 C#m
  No seu caminhar vou encontrando rima

                           B9
As notas me vem no teu abraçar
                      E
Riff 3
     E|----------------------------------------------------|
     B|-7/9--7---------------------------------------------|
     G|----- --9-8---9-------------------------------------|
     D|----------------------------------------------------|
     A|----------------------------------------------------|
     E|----------------------------------------------------|

 E                              A
  No teu beijo doce a letra se faz
                            C#m
Agora o resto não importa mais
               B9                   E
É que o nosso amor canção perfeita traz.

Solo:

E|----------------------------------------------------|
B|---7/9-~-0-5/7-~-9-7/9-4h5p4-4-0-2----0-------------|
G|----------------------------------------------------|
D|----------------------------------------------------|
A|----------------------------------------------------|
E|----------------------------------------------------|

Riff 3
E|------7-7-------------------------------------------|
B|--9-9-----------------------------------------------|

canção perfeita traz

Riff 4 (2x)
E|--4p5----4p5----------------------------------------|
B|------5------5--------------------------------------|

                    E
canção perfeirta traz
Acordes para:
    Composição: Israel NovaesColaboração e revisão:

    0 comentários

      mostrar mais comentários

      Conseguiu tocar?

      17tocaram0ainda não

      Grave um vídeo tocando Canção Perfeita e mande pra gente!

      00:00 / 00:00
      outros vídeos desta música
      repetirqualidadeautomática
      Outro vídeos desta música
        00:00 / 00:00
        automática
        OK