Cifra Club

Aprenda

Marketing (part. Jorge)

Israel Novaes

Cifra: Principal (violão e guitarra)
Tom: Am
[Intro] F  G  C  G/B  Am7

E|------------------------------------------|
B|-----8/10--13p12-10-8~--------------------|
G|-7/9--------------------------------------|
D|------------------------------------------|
A|------------------------------------------|
E|------------------------------------------|

E|------------------------------------------|
B|-----8---8---8/10-------------------------|
G|-7/9---9---9------7-7/9-------------------|
D|------------------------------------------|
A|------------------------------------------|
E|------------------------------------------|

[Primeira Parte]

       F      G
Só restou eu sentindo saudade
       C          G/B   Am7
E não tô curtindo essa vibe
       F                      G
Vai bater a falta minha em você
               Am7  C
Só que cê nem sabe

[Pré-Refrão]
 
                     F
Terminar comigo é fácil
                   G
Ficar sem mim é fase
        C           G/B       Am7
Seu sorriso na sua foto é só marketing
              F
Convence ninguém
     G                     Am7
Não vem me falar que tá tudo bem
          C
Não tá nada bem

[Refrão]

      F                  G
Economiza o sofrimento, vai
               Am7                     C
Já tô te adiantando que saudade dói demais
                F          
Se acha que dá conta, então vai
                 G
Essa é a melhor parte
         Am7                       C
Você tentando me esquecer e morrendo no quase

      F                  G
Economiza o sofrimento, vai
               Am7                     C
Já tô te adiantando que saudade dói demais
                F          
Se acha que dá conta, então vai
                 G
Essa é a melhor parte
         Am7                       C
Você tentando me esquecer e morrendo no quase

[Solo] F  G  Am7  C
       F  G  

E|------------------------------------------|
B|-6/8-8-8-8-6-6----------------------------|
G|---------------9-9-7-7-5-5/7--------------|
D|------------------------------------------|
A|------------------------------------------|
E|------------------------------------------|

E|------------------------------------------|
B|-6/8-8-8-8\6-6----------------------------|
G|---------------9-9-7-7-5-7/9-5------------|
D|------------------------------------------|
A|------------------------------------------|
E|------------------------------------------|

E|------------------------------------------|
B|-12/13-13-13-13---------------------------|
G|----------------10-10-9-10-9-10-----------|
D|------------------------------------------|
A|------------------------------------------|
E|------------------------------------------|

E|------------------------------------------|
B|-13/15-15-------------13p12-10------------|
G|----------12-12-12-12---------------------|
D|------------------------------------------|
A|------------------------------------------|
E|------------------------------------------|


[Pré-Refrão]
 
                     F
Terminar comigo é fácil
                   G
Ficar sem mim é fase
        C           G/B       Am7
Seu sorriso na sua foto é só marketing
              F
Convence ninguém
     G                     Am7
Não vem me falar que tá tudo bem
          C
Não tá nada bem

[Refrão]

      F                  G
Economiza o sofrimento, vai
               Am7                     C
Já tô te adiantando que saudade dói demais
                F          
Se acha que dá conta, então vai
                 G
Essa é a melhor parte
         Am7                       C
Você tentando me esquecer e morrendo no quase

      F                  G
Economiza o sofrimento, vai
               Am7                     C
Já tô te adiantando que saudade dói demais
                F          
Se acha que dá conta, então vai
                 G
Essa é a melhor parte
         Am7                       C
Você tentando me esquecer e morrendo no quase

[Final] F  G  Am

E|------------------------------------------|
B|-6/8-8-8-8-6-6----------------------------|
G|---------------9-9-7-7-5-5/7--4h5-2-------|
D|------------------------------------------|
A|------------------------------------------|
E|------------------------------------------|
Composição de Hiago Vinicius / Juan Marcus / Natanael Silva / Renato Silva
Colaboração e revisão:
  • Thiago Almeida
11.613 exibições
    • ½ Tom
    • Am
    • Bbm
    • Bm
    • Cm
    • C#m
    • Dm
    • Ebm
    • Em
    • Fm
    • F#m
    • Gm
    • G#m
  • Adicionar à lista

    0 comentários

    Mostrar mais comentários

    Conseguiu tocar?

    1 Tocaram 0 Ainda não

    Grave um vídeo tocando Marketing (part. Jorge) e mande pra gente!

    00:00 / 00:00
    outros vídeos desta música
    repetir qualidade Automático
    Outros vídeos desta música
    00:00 / 00:00
    Automático

    Cifra Club Pro

    Aproveite o Cifra Club com benefícios exclusivos e sem anúncios
    7 dias grátis
    Cifra Club Pro
    Aproveite o Cifra Club com benefícios exclusivos e sem anúncios
    7 dias grátis
    OK