Cifra Club

Casa Mobiliada (part. Edson e Hudson)

Israel e Rodolffo

Cifra: Principal (violão e guitarra)
tom: A (forma dos acordes no tom de G) Capotraste na 2ª casa
[Intro]  G  D  Am  C

      G                D
E|-------------------------|
B|-------------------------|
G|--2/4-2-2-0-0--------0h2-|
D|--------------2h4-2-0----|
A|-------------------------|
E|-------------------------|

      Am                     C
E|-----------------------------------|
B|--0-0h1p0-0-0----------------------|
G|--2-2---------2-0h2-0----0--0------|
D|----------------------0h2--0-0h2---|
A|-----------------------------------|
E|-----------------------------------|

[Primeira Parte]

  G                D
Tropecei na sua beleza
    Am               C
Na piadinha tive certeza
   G                   D
E fui naquela sede ao pote
   Am                    C
Eu investi pesado e dei sorte

[Pré-Refrão]

        G
Agora, para tudo pra me ouvir
Tenho duas notícias
                 Bm
Uma boa, outra ruim
Qual você quer primeiro?
A que a gente se casa no susto
                C
E partiu no cruzeiro

Ou sumir por um tempo
   Am
E pegar uma praia
                    D
De boa no mês de Janeiro

[Refrão]

              C
Ou casa mobiliada
A gente financia
                       G
E paga em duzentas parcelas
                         Em
Junta dinheiro, troca o carro
Evita de jantar fora
                   D
E cofrinho garante as férias
               C
E daqui alguns anos
                                 G
Se quiser ter filhos a gente conversa
              Em
Imagina na escola
O menino chutando bola
                    D
Ela brincando de boneca

                C                            G
E|---------------------------------------------|
B|-3-3-3-3/8-8-7-7-5-5-3-3--8--7-7-5-5-3-------|
G|---------------------------------------4-4/7-|
D|-4-4-4-4/9-9-7-7-5-5-4-4--9--7-7-5-5-4-------|
A|---------------------------------------------|
E|---------------------------------------------|

               Em
E|-----------------|
B|-0-0-0-0-0-5-3-3-|
G|-0-0-0-0-0-5-4-4-|
D|-----------------|
A|-----------------|
E|-----------------|

                 D
E|----------------------2h3p2-------------|
B|-0-0-0-0-0-0-0-------------3------------|
G|-0-0-0-0-0-0-0-2/4/2--------4-2----0----|
D|--------------------------------0h2-----|
A|----------------------------------------|
E|--------------------------------------3-|

[Pré-Refrão]

        G
Agora, para tudo pra me ouvir
Tenho duas notícias
                 Bm
Uma boa, outra ruim
Qual você quer primeiro?
A que a gente se casa no susto
                C
E partiu no cruzeiro

Ou sumir por um tempo
   Am
E pegar uma praia
                    D
De boa no mês de Janeiro

[Refrão]

              C
Ou casa mobiliada
A gente financia
                       G
E paga em duzentas parcelas
                         Em
Junta dinheiro, troca o carro
Evita de jantar fora
                       D
E cofrinho garante as férias
               C
E daqui alguns anos
                                 G
Se quiser ter filhos a gente conversa
              Em
Imagina na escola
O menino chutando bola
                    D
Ela brincando de boneca

[Final]

              C                   Cm      G
E|-----------------------------------------------|
B|--3-3-3-3/8-8-7-7-5-5-3-0-0------1-0-----------|
G|------------------------------------2-0--------|
D|--4-4-4-4/9-9-7-7-5-5-4-0-0---0h2--------------|
A|-----------------------------------------------|
E|--------------------------------------3--------|
00:00 / 00:00
Outros vídeos desta música
Repetir
Outros vídeos desta música
Composição de Diego De Souza / Diego Kraemer / Juliano Freitas / Tiago Marcelo
261.125 exibições
    • ½ Tom
    • A
    • Bb
    • B
    • C
    • Db
    • D
    • Eb
    • E
    • F
    • F#
    • G
    • Ab
  • Adicionar à lista

    0 comentários

    Ver todos os comentários

    Conseguiu tocar?

    44 Tocaram 14 Ainda não

    Grave um vídeo tocando Casa Mobiliada (part. Edson e Hudson) e nos envie!

    00:00 / 00:00

    Cifra Club Pro

    Aproveite o Cifra Club com benefícios exclusivos e sem anúncios
    Cifra Club Pro
    Aproveite o Cifra Club com benefícios exclusivos e sem anúncios
    OK