Cifra Club

Aprenda

Deixa Eu Chorar (part. Jorge e Mateus)

Israel e Rodolffo

Cifra: Principal (violão e guitarra)
Tom: C
[Intro]  C  G  E4(7)  Am  F

E|---------------------------------------------|
B|---------------------------------------------|
G|---------------------------------------------|
D|---------------------------------------------|
A|------5/7-7-------------5/7-7-7-7-5p3-5------|
E|--3-3---------3-3-3-3-3----------------------|

E|---------------------------------------------|
B|---------------------------------------------|
G|---------------------------------------------|
D|---------------------------------------------|
A|-2-2-2-2-3-3/5-5-5-5-3h2-3---2-0-------------|
E|---------------------------------------------|

E|---------------------------------------------|
B|---------------------------------------------|
G|-5/7-7-7-7-7-7-7-7-7-5-5-4-2-----------------|
D|---------------------------------------------|
A|---------------------------------------------|
E|---------------------------------------------|

E|---------------------------------------------|
B|-------------6p5/3/1-3/5~--------------------|
G|----------5----------------------------------|
D|-5-3h5/7-------------------------------------|
A|---------------------------------------------|
E|---------------------------------------------|

         C
Dizem que beijar faz bem pra esquecer
       G
E que a bebida ajuda aliviar
          Am
Mas quando se trata dela
        F
É difícil de remediar

C
O cheiro que não sai da roupa
G
O beijo que não sai da boca
Am
Jorge e mateus tenta ajudar
F
Mas tocar no nome dela só vai piorar

           C
Deixa eu chorar
                                 G
Porque meu sentimento é particular
                   E4(7)               Am
Se eu te contar vai que ela fica sabendo
                               F
Melhor não divulgar meu sofrimento

           C
Deixa eu chorar
                                 G
Porque meu sentimento é particular
                   E4(7)               Am
Se eu te contar vai que ela fica sabendo
                               F
Melhor não divulgar meu sofrimento

Amei sozinho, sozinho eu aguento

[Solo] C  G  E4(7)  Am  F

C
O cheiro que não sai da roupa
G
O beijo que não sai da boca
Am
Jorge e mateus tenta ajudar
F
Mas tocar no nome dela só vai piorar

           C
Deixa eu chorar
                                 G
Porque meu sentimento é particular
                   E4(7)               Am
Se eu te contar vai que ela fica sabendo
                               F
Melhor não divulgar meu sofrimento

           C
Deixa eu chorar
                                 G
Porque meu sentimento é particular
                   E4(7)               Am
Se eu te contar vai que ela fica sabendo
                               F
Melhor não divulgar meu sofrimento
                                 C
Amei sozinho, sozinho eu aguento
Composição de Alvino Gomes Alves / Junior Angelim
Colaboração e revisão:
  • James Magalhães
  • Matheus Iego
35.921 exibições
    • ½ Tom
    • A
    • Bb
    • B
    • C
    • Db
    • D
    • Eb
    • E
    • F
    • F#
    • G
    • Ab
  • Adicionar à lista

    0 comentários

    Mostrar mais comentários

    Conseguiu tocar?

    12 Tocaram 1 Ainda não

    Grave um vídeo tocando Deixa Eu Chorar (part. Jorge e Mateus) e mande pra gente!

    00:00 / 00:00
    outros vídeos desta música
    repetir qualidade Automático
    Outros vídeos desta música
    00:00 / 00:00
    Automático
    OK