Fecha Esse Porta-mala

Israel e Rodolffo

Tom: B
Intro: ( B F# E Em )

 Riff Intro:                 (Em de baixo para cima)
E|---------------------------0----|
B|-----------2/5/4-----------0----|
G|--2/4-4-3---------4-1------0----|
D|-----4---------------------2----|
A|---------------------------2----|
E|---------------------------0----|

           B
É mais um gole de cerveja que desce amargo
      G#m                        E
E a saudade que não da trégua
                                    Em (Deixa soar)
E quando eu acho que to esquecendo                B|-5/7-5-4----|


C#m           E
No outro lado encosta um carro
    G#m        F#
E o desgramado já desce aumentando o volume
 C#m              E
Meu ponto fraco é essa moda
G#m             F#
Que você chegou tocando

Refrão 2x:

                 B
Fecha esse porta mala moço
F#                     C#m
A coisa tá ficando feia
          E
Cê tá acabando com a minha sexta-feira
 B                    F#             C#m
E quanto mais eu choro, mais eu bebo
          E              B
Mais eu gasto, mais eu devo

( B F# C#m E ) 2x

 Riff Intro:                 (Em de baixo para cima)
E|---------------------------0----|
B|-----------2/5/4-----------0----|
G|--2/4-4-3---------4-1------0----|
D|-----4---------------------2----|
A|---------------------------2----|
E|---------------------------0----|

C#m           E
No outro lado encosta um carro
    G#m        F# (pausa)
E o desgramado já desce aumentando o volume
 C#m              E
Meu ponto fraco é essa moda
G#m             F#
Que você chegou tocando

Refrão 3x:
                 B
Fecha esse porta mala moço
F#                     C#m
A coisa tá ficando feia
          E
Cê tá acabando com a minha sexta-feira
 B                    F#             C#m
E quanto mais eu choro, mais eu bebo
          E              B
Mais eu gasto, mais eu devo
Página 1 / 1

Letras e título
Acordes e artista

resetar configurações
OK