Cifra Club

Não Existe Amor Sem Briga

Israel e Rodolffo

Cifra: Principal (violão e guitarra)
tom: E
E|-------------------------------------------------|
B|---3/5-5----------3/5-5--------------------------|
G|------------4-4----------------------------------|
D|---4/6-6----------4/6-6----------2h4-2-----------|
A|------------------------------2h4----------------|
E|-------------------------------------------------|

E
Tudo bem que a gente brigou outra vez
B
Então não vem me culpar pelo que você fez
   C#m
Vou ficar nesse carro rodando a cidade
   A
Esperando seu volta pra mim por mensagem

E
Pode ser, que eu estacione em algum lugar
B
Toda briga o remédio pra cura é o bar
   C#m
Se eu beber eu sei que a coisa vai piorar
   A
Já to vendo eu ligando só pra te falar

E
Tudo bem, vamos ficar de boa em paz
B
Você que errou, mas assumo o erro por nós
      C#m
Tô no posto comprando pipoca, chocolate, tudo que eu sei que cê gosta
        A
Acho um filme ai no Netflix que cinco minutos eu tô na sua porta

     E
E a gente faz, amor demais
     B
E o que era raiva, vira paz

    C#m                        A
Não vamos mais falar em despedida

Afinal

     E
E a gente faz, amor demais
     B
E o que era raiva, vira paz

    C#m                        A
Não vamos mais falar em despedida

Afinal… não existe amor sem briga

E|----------------------------------------------------------------|
B|---3/5-5----------3/5-5---------5/7-7-------5/7-7---------------|
G|------------4-4-----------4-4-----------------------------9h11-9|
D|---4/6-6----------4/6-6---------6/8-8--9-9--6/8-8----9h11-------|
A|----------------------------------------------------------------|
E|----------------------------------------------------------------|

E
Tudo bem, vamos ficar de boa em paz
B
Você que errou, mas assumo o erro por nós
      C#m
Tô no posto comprando pipoca, chocolate, tudo que eu sei que cê gosta
        A
Acho um filme ai no Netflix que cinco minutos eu tô na sua porta

     E
E a gente faz, amor demais
     B
E o que era raiva, vira paz

    C#m                        A
Não vamos mais falar em despedida

Afinal

     E
E a gente faz, amor demais
     B
E o que era raiva, vira paz

    C#m                        A
Não vamos mais falar em despedida

Afinal… não existe amor sem briga

E|----------------------------------------------------------------|
B|---3/5-5----------3/5-5---------5/7-7-------5/7-7---------------|
G|------------4-4-----------4-4-----------------------------9h11-9|
D|---4/6-6----------4/6-6---------6/8-8--9-9--6/8-8----9h11-------|
A|----------------------------------------------------------------|
E|----------------------------------------------------------------|

    C#m                        A
Não vamos mais falar em despedida

Afinal… não existe amor sem briga
00:00 / 00:00
Outros vídeos desta música
Repetir
Outros vídeos desta música
Composição de Thales Lessa
144.540 exibições
    • ½ Tom
    • A
    • Bb
    • B
    • C
    • Db
    • D
    • Eb
    • E
    • F
    • F#
    • G
    • Ab
  • Adicionar à lista

    0 comentários

    Ver todos os comentários
    00:00 / 00:00

    Cifra Club Pro

    Aproveite o Cifra Club com benefícios exclusivos e sem anúncios
    Cifra Club Pro
    Aproveite o Cifra Club com benefícios exclusivos e sem anúncios
    OK