Cifra Club

Quem Vai Chorar Não Sou Eu

Israel e Rodolffo

Cifra: Principal
exibições 28.974
Tom: G
E|-------------------------------------
B|-------------------------------------
G|-------------------------------------
D|-------------------------------------
A|--1/5--5-5--7-7--5-5---3-2-----------

E|-------------------------------------
E|-------------------------------------
B|-------------------------------------
G|-------------------------------------
D|-------------------------------------
A|--1/5--5-5--5h7-7-----10-7-5-2-------
E|-------------------------------------

(sanfona) e você acompanha fazendo..

E|--------------------------------------
B|--------------------------------------
G|--------------------------------------
D|--------------------------------------
A|--0h2-3-------3-3/2-0-----------------
E|--------------------------------------

E|-------10--10--------8--8---7---10-10----------------
B|-----------------------------------------------------
G|-0/11-----------7/9---------7---11-11----------------
D|-----------------------------------------------------
A|-----------------------------------------------------
E|-----------------------------------------------------

G
Alguém tá te esperando lá fora
(G D/F# G)     Em
Melhor ir embora
C               Am                     C
Vai e tenta encontrar alguém pra te amar
                   D G  D
Que faz amor como eu
G
Nem tente se explicar agora
(G D/F# G)  Em
Não é a hora
C                         Am                  C
Mais vai sabendo que ninguém te queria tão bem
                 D
E te amou como eu
                    G
Que faz amor como eu
                       Em
Que te enlouquece sou eu
                  C                  Am
Estava em suas mãos, te dei meu coração
                C               D
Você não deu valor agora me perdeu
                          G
Quem vai chorar não sou eu
                         Em
Quem vai sofrer não sou eu
                   C                 Am
Estava em suas mãos, te dei meu coração
                 C                    D
Esqueça de uma vez quem já te esqueceu.

Solo( G D C D) Repete tudo.
Acordes para:
    Composição: Israel / Rodolfo Colaboração e revisão:
    • André Barboza
    • Jackson Souza

    0 comentários

      mostrar mais comentários

      Conseguiu tocar?

      4tocaram0ainda não

      Grave um vídeo tocando Quem Vai Chorar Não Sou Eu e mande pra gente!

      00:00 / 00:00
      outros vídeos desta música
      repetirqualidadeautomática
      Outro vídeos desta música
        00:00 / 00:00
        automática
        OK