Prezadíssimos Ouvintes

Itamar Assumpção

Composição de: Domingos Pellegrini / Itamar Assumpção
tom: E
O novo não me choca mais
Nada de novo sob o sol
O que existe é o mesmo ovo de sempre
Chocando o mesmo novo

Muito prazer

( E ) (Riff 1)

                 E
Prezadíssimos ouvintes
                G#m (Riff 2)  C#m
Pra chegar até aqui
                     F#7  (Riff 3)
Eu tive que ficar na fila
                      C (Riff 4)
Aguentar tranco na esquina
                B7 A7 G#m F#7
E por cima lotação

E  (Riff1)          E
Noite, e aqui tô eu novo de novo
                      G#m  (Riff 2)  C#m
Com vinte e quatro costelas
                  F#7  (Riff 3)
O gogó, baixo, guitarra (violão e percussão e vozes)
                 C (Riff 4)
Ligadas numas tomadas
                B7 A7 G#m F#7
Elétricas e pulmão

C#m                  G#m
Já cantei num galinheiro
A                  G#m
Cantei numa procissão
A                 G#m
Cantei ponto de terreiro
F#7               C7              B7 A7 G#m F#7
Agora eu quero é cantar na televisão

E  (Riff1)                  E
Meu irmão, o negócio é o seguinte
                 G#m  (Riff 2)  C#m
É pura briga de foice
                  F#7   (Riff 3)
Um jogo de empurra-empurra
                    C (Riff 4)
Facão, tiro, chute, murro
                    B7 A7 G#m F#7
Chamam mãe de palavrão

E  (Riff1)                  E
Sorte não haver o que segure som
                 G#m (Riff 2)  C#m
Senhoras e senhores
                    F#7 (Riff 3)
Mas quem é que me garante
                     C (Riff 4)
Que mesmo esses microfones
                 B7 A7 G#m F#7
Sempre funcionarão?

C#m                   G#m
Cantei tal qual seresteiro
A                 G#m
Cantei paixão, solidão
A                 G#m
Cantei canto de guerreiro
F#7               C7              B7 A7 G#m F#7
Agora eu quero cantar na televisão

Riff 1

E|--------------------|
B|--------------------|
G|-----------------5--|
D|-----------------5--|
A|--------4--5--6--7--|
E|--4--5--------------|

Riff 2

E|--------------------|
B|--------------------|
G|--------------------|
D|--------------------|
A|-----------0--2--4--|
E|--0--2--4-----------|

Riff 3


E|--------------------------------2--2--2--|
B|--------------------------------2--2--2--|
G|--------------------------------3--3--3--|
D|-----4--2-----------4--2--------2--2--2--|
A|-----------4--3--2--------4--2--4--4--4--|
E|--2-----------------------------2--2--2--|

Riff 4

E|-----------------------------|
B|-----------------------------|
G|-----------------1--2--3-----|
D|-----2--3--4--5--------------|
A|--3-----------------------2--|
E|-----------------------------|
Página 1 / 1

Letras e título
Acordes e artista

resetar configurações
OK