Beer Intro

Itchyworms

tom: G
Tabber:Henston S. Lee
Tuning:Standard

iNtro lng muna gawin ko tsaka na ung chords ok..!!??

e|-------------------------------------|
B|-------------------10s12-------------|
G|------7-9s11------9-----------7-9s11-|
D|-77h9--------10-9--------10-9--------|
A|-------------------------------------|
E|-------------------------------------|

e|----------------------------------------|
B|-1212---------------12----1010h12-10----|
G|-----1212-9-8-11-14----12------------13-|
D|----------------------------------------|
A|----------------------------------------|
E|----------------------------------------|

hanggang jan na lng muna mga tol kayang kaya nyo yan napakadali nyan...
add nyo ko sa friendster *
ilOveyou mAe!!!!
Página 1 / 1

Letras e título
Acordes e artista

resetar configurações
OK