Beer Solo

Itchyworms

tom: G
Beer

Lead Part

h-hammer

E|---------------------------12--14-15-17-15-14-12-10-------------12-10-10-|
B|---------8--12-12-10--------------------------------10h11h12-10----------|
G|-----7-9--------------12-9-----------------------------------------------|
D|-7-9---------------------------------------------------------------------|
A|-------------------------------------------------------------------------|
E|-------------------------------------------------------------------------|

E|-------------------------------------------------------------------------|
B|--12-10-------12-12----12-10-10--------------12-10-10--------------------|
G|---------12-9-------------------12-12-9-9-12----------12-12-9-9-12-------|
D|-------------------------------------------------------------------------|
A|-------------------------------------------------------------------------|
E|-------------------------------------------------------------------------|

E|---------------------------------------|
B|-12-10----12-10----12--13--------------|
G|-------12-------12---------------------|
D|---------------------------------------|
A|---------------------------------------|
E|---------------------------------------|


mermer ule gmawa nto…
claire 05-06
Página 1 / 1

Letras e título
Acordes e artista

resetar configurações
OK