Cifra Club

País Tropical

Ivete Sangalo

Cifra: Principal (violão e guitarra)
exibições 144.920
Tom: Am
[Introdução]

E|-----------------------------------------------------|
B|-----------------------------------------------------|
G|-----------------------------------------------------|   (2x)
D|-----------------1--1---------------------3--2-------|
A|-3-3---3-3---3-3------3---3-3---3-3---3-3------------|
E|-----------------------------------------------------|


[Primeira Parte]

 C   F
Moro
      G        C  F
Num país tropical
      G        Am  G
Abençoado por Deus
     F        G   Am
E bonito por natureza
  G    F
Que beleza
    G   C                   F
Em fevereiro (em fevereiro)
 G        C                 F
Tem carnaval (tem carnaval)
             G             Am  G
Eu tenho um fusca e um violão
           F
Eu sou Flamengo
             G              Am  G  F
E tenho uma nêga chamada Tereza

( F  G )


[Segunda Parte]

 C   F
Moro
      G        C  F
Num país tropical
      G        Am  G
Abençoado por Deus
     F        G   Am
E bonito por natureza
  G    F
Que beleza
    G   C                   F
Em fevereiro (em fevereiro)
 G        C                 F
Tem carnaval (tem carnaval)
             G             Am  G
Eu tenho um fusca e um violão
           F
Eu sou Flamengo
             G              Am  G  F
E tenho uma nêga chamada Tereza

[Terceira Parte]

E|-----------------------------------------------------|
B|-6-6-------------------------------------------------|
G|-----8-7-5\----------------5-5-----------------------|   (2x)
D|--------------3--3-------------8-7-5\----------------|
A|-------------------6-5-3----------------3--3---------|
E|---------------------------------------------6-5-3---|

E|--------------------------3--3--3--3--3-3-3-3-3-3-3-3|
B|-6-6----------------------3--3--3--3--3-3-3-3-3-3-3-3|
G|-----8-7-5\---------------4--4--4--4--4-4-4-4-4-4-4-4|
D|--------------3--3--------5--5--5--5--5-5-5-5-5-5-5-5|
A|-------------------6-5-3--5--5--5--5--5-5-5-5-5-5-5-5|
E|--------------------------3--3--3--3--3-3-3-3-3-3-3-3|

"Sambaby", "Sambaby"
Eu posso não ser um Band Leader
(Pois é)
Mas lá em casa o namorado, gato
Papagaio, todo mundo me respeita
(Póis é)
Essa é a razão da simpatia
Do poder, do algo mais e da alegria


[Quarta Parte]

 C   F
Moro
      G        C  F
Num país tropical
      G        Am  G
Abençoado por Deus
     F        G   Am
E bonito por natureza
  G    F
Que beleza
    G   C                   F
Em fevereiro (em fevereiro)
 G        C                 F
Tem carnaval (tem carnaval)
             G             Am  G
Eu tenho um fusca e um violão
           F
Eu sou Flamengo
             G              Am  G
E tenho uma nêga chamada Tereza
           F
Eu sou Flamengo
             G              Am  G
E tenho uma nêga chamada Tereza


[Final]

               F     G         C
Sou "fla fla",   ela é "mê mê"
               F     G         C
Sou "fla fla",   ela é "mê mê"
               F     G         C
Sou "fla fla",   ela é "mê mê"
               F     B         E
Sou "fla fla",   ela é "mê mê"

               A     B         E
Sou "fla fla",   ela é "mê mê"
               A     B         E
Sou "fla fla",   ela é "mê mê"
               A     B         E
Sou "fla fla",   ela é "mê mê"
               A     B      E
Sou "fla fla",   ela é "mê mê"
Acordes para:
    Composição: Jorge Ben Jor Colaboração e revisão:
    • Vinícius Dias
    • Marcos Paulo
    • Filipe Araújo

    0 comentários

    mostrar mais comentários

    Conseguiu tocar?

    8 tocaram 4 ainda não

    Grave um vídeo tocando País Tropical e mande pra gente!

    00:00 / 00:00
    outros vídeos desta música
    repetir qualidade Automático
    Outros vídeos desta música
    00:00 / 00:00
    Automático
    Capítulos
    • Tocando a música
    • Apresentação / Equipamentos
    • Tocando Introdução
    • Riff da Introdução
    • Acordes Primeira Parte
    • Tocando Primeira Parte
    • Ritmo Primeira Parte
    • Acordes Segunda Parte
    • Tocando Segunda Parte
    • Ritmo Segunda Parte
    • Dicas Terceira Parte
    • Tocando Terceira Parte
    • Riff Terceira Parte
    • Acordes Quarta Parte (modulação)
    • Tocando Quarta Parte - final
    • Ensinando Quarta Parte
    • Encerramento
    OK