Cifra Club

País Tropical

Ivete Sangalo

Tab de baixo: Principal
[Introdução 2x]

G|----------------------------------------------|
D|----------------------------------------------|
A|-3-3--3-3--3-3--6-6-3--3-3--3-3--3-3--8-7-----|
E|----------------------------------------------|
B|----------------------------------------------|


[Primeira parte]

Moro, num país tropical...

Parte 1 de 2
G|----------------------------------------------|
D|----------------------------------------------|
A|-8-7--3---3------------------3---3------------|
E|--------3---0--0-1-0-1-3---3---3---0--0-1-0-1-|
B|-------------------------3--------------------|

G|----------------------------------------------|
D|----------------------------------------------|
A|--------------3-2--------------------5-7------|
E|-3---3--5---5-----5-3--1---1-3---3-5-----5-3--|
B|---3------5--------------1-----3--------------|

Parte 2 de 2
G|----------------------------------------------|
D|--------------------------------------2-5-2-3-|
A|------------3-3-----------------3-3-5---------|
E|-1---1-3--3-----0--0-1-0-1-3--3---------------|
B|---1------------------------------------------|

G|----------------9-9---------------------------|
D|-------------12-----10~~--------------------2-|
A|-3----------------------------------------3---|
E|---0-3-0-3-5-------------1-0-1-3---3--5-5-----|
B|---------------------------------3------------|

G|----------------------------------------------|
D|----------------------------------------------|
A|----------------------------------------------|
E|-0-1--0-3-------------------------------------|
B|----------------------------------------------|


[Segunda parte]

"Sambaby", "Sambaby"...

Parte 1 de 2 (2x)
G|-10-10-8-7------------------------------------|
D|-----------10-------------10-10-8-7-----------|
A|---------------8-8-6-5--------------10--------|
E|-----------------------8----------------------|
B|----------------------------------------------|

G|----------------------------------------------|
D|----------------------------------------------|
A|----------------------------------------------|
E|-8-8-6-5--------------------------------------|
B|---------8------------------------------------|

Parte 2 de 2
G|-10-10-8-7------------------------------------|
D|-----------10---------------------------------|
A|---------------8-8-6-5-----10-10-------10-----|
E|-----------------------8---------10-12--------|
B|----------------------------------------------|

G|----------------------------------------------|
D|----------------------------------------------|
A|-10-10-10--10-10-10---------------------------|
E|----------------------------------------------|
B|----------------------------------------------|


[Terceira Parte]

Moro, num país tropical...

Parte 1 de 2
G|----------------------------------------------|
D|-------------------------------2-5-2-3--------|
A|-3---3------------------3--3-5---------3------|
E|---3---0--0-1-0-1-3---3------------------0-3--|
B|--------------------3-------------------------|

G|----------------------------------------------|
D|----------------------------------------------|
A|--------------3-2-----------------------------|
E|---3--5---5-------5-3--1---1-3---3--5---5-----|
B|-3------5----------------1-----3------5-------|

G|----------------------------------------------|
D|----------------------------------------------|
A|-3-2------------------------------------------|
E|-----5-3--1---1--3---3------------------------|
B|------------1------3--------------------------|

Parte 2 de 2
G|----------------------------------------------|
D|----------------------------------------------|
A|-3---3-------------------3---3----------------|
E|---3---0--0-1-0-1-3---3----3----0--0-1-0-1----|
B|--------------------3-------------------------|

G|--------------9-9-----------------------------|
D|-----------12-----10--------------------------|
A|----------------------------------------------|
E|-3---3--5------------1---1--3---3--5---5------|
B|---3-------------------1------3------5--------|

G|----------------------------------------------|
D|----------------------------------------------|
A|-3-2------------------------------------------|
E|-----5-3--1---1--3---3--5-0-5-----------------|
B|------------1------3--------------------------|


[Quarta parte Final] 

Eu sou flá flá ela é mê mê...

Parte 1 de 4
G|----------------------------------------------|
D|----------------------------------------------|
A|------------3---3-----------------3---3-------|
E|-1-----3------3---0-0--1-----3------3---0-0---|
B|---1h3---3---------------1h3---3--------------|

G|----------------------------------------------|
D|----------------------------------------------|
A|------------3---3---------------6-------------|
E|-1-----3------3---0-0--1------7---------------|
B|---1h3---3---------------1h3------------------|

Parte 2 de 4 
G|----------------------------------------------|
D|----------------------------------------------|
A|-7---7----------------------------------------|
E|---7----4---4-5---5--7---7--------------------|
B|----------5-----5------7----------------------|

Parte 3 de 4 (2x)
G|----------------------------------------------|
D|--------------------------9-------------------|
A|-7---7------------------9---------------------|
E|---7----4---4-5---5--7------------------------|
B|----------5-----5-----------------------------|

Parte 4 de 4
G|----------------------------------------------|
D|----------------------------------------------|
A|-7---7--------------------7-------------------|
E|---7----4---4-5---5--7-7----------------------|
B|----------5-----5-----------------------------|
00:00 / 00:00
Outros vídeos desta música
Repetir
Outros vídeos desta música
Composição de Jorge Ben Jor
Colaboração e revisão:
  • Reginaldo Costa
3.000 exibições

0 comentários

Ver todos os comentários

Conseguiu tocar?

0 Tocaram 0 Ainda não

Grave um vídeo tocando País Tropical e nos envie!

Entre para oCifra Club PRO

Tenha acesso a benefícios exclusivos no App e no Site

  • Chega de anúncios

  • Prioridade de compra em lançamentos

  • Mais recursos no app do Afinador

  • Atendimento Prioritário

  • Descontos nos produtos Cifra Club

  • Ajude a produzir mais conteúdo

00:00 / 00:00
Capítulos
  • Tocando a música
  • Apresentação / Equipamentos
  • TAB - Introdução
  • TAB - Primeira Parte - Parte 1 de 2
  • TAB - Primeira Parte - Parte 2 de 2
  • TAB - Segunda Parte - Parte 1 de 2
  • TAB - Segunda Parte - Parte 2 de 2
  • TAB - Terceira Parte - Parte 1 de 2
  • TAB - Terceira Parte - Parte 2 de 2
  • TAB - Quarte Parte - Parte 1 de 4
  • TAB - Quarte Parte - Parte 2 de 4
  • TAB - Quarte Parte - Parte 3 de 4
  • TAB - Quarte Parte - Parte 4 de 4
  • Encerramento

Cifra Club Pro

Aproveite o Cifra Club com benefícios exclusivos e sem anúncios
Cifra Club Pro
Aproveite o Cifra Club com benefícios exclusivos e sem anúncios
OK