Cifra Club

A Brokedown Melody Intro

Jack Johnson

Cifra: Principal (violão e guitarra)
tom: D
My 1st so see what you think

Tabbed by JoEJoE

E|----0--0/-0/--0-----0---]
B|----3--1/-3/--1-----3---]
G|----0--2/-4/--2-----0---]   X 4
D|----2--3/-5/--3-----2---]
A-3--3------------3--3---]
E|------------------------]

then flows into

E|-----0------0------0------0----]
B|-----3------3------3------3----]
G|-----0------0------0------0----]
D|-----2------2------2------0----]
A|--3--3---2--2---0--0------2----]
E|-----------------------3-------]

I Like to play this over top of Jack's song Breakdown. The one with the UKE and it sounds real nice.
00:00 / 00:00
Outros vídeos desta música
Repetir
Outros vídeos desta música
Compositor não encontrado.
Colaboração e revisão:
  • henrique araujo
16.255 exibições
    • ½ Tom
    • A
    • Bb
    • B
    • C
    • Db
    • D
    • Eb
    • E
    • F
    • F#
    • G
    • Ab
  • Adicionar à lista

    0 comentários

    Ver todos os comentários

    Conseguiu tocar?

    0 Tocaram 0 Ainda não

    Grave um vídeo tocando A Brokedown Melody Intro e nos envie!

    Entre para oCifra Club PRO

    Tenha acesso a benefícios exclusivos no App e no Site

    • Chega de anúncios

    • Prioridade de compra em lançamentos

    • Mais recursos no app do Afinador

    • Atendimento Prioritário

    • Descontos nos produtos Cifra Club

    • Ajude a produzir mais conteúdo

    00:00 / 00:00

    Cifra Club Pro

    Aproveite o Cifra Club com benefícios exclusivos e sem anúncios
    Cifra Club Pro
    Aproveite o Cifra Club com benefícios exclusivos e sem anúncios
    OK