French Kiss The Elderly

Jack Off Jill

Composição de: Jack Off Jill
tom: G
French Kiss the Elderly (guitar)
Tabbed by Ottis (GoblinK*)

e------------
B------------
G--12---10---
D--12---10---
A--10---8----
E------------
  Verse

e-------------------
B-------------------
G-------------------
D--9---6--9--6--7---
A--9---6--9--6--7---
E--7---4--7--4--5---    [The first B chord is only played at the
  Chorus                beginning of the Chorus.]

e------------------------
B------------------------
G------------------------
D--3-3-3-4-3--3-3-3-4-6--
A--3-3-3-4-3--3-3-3-4-6--
E--1-1-1-2-1--1-1-1-2-4--
  Post-Chorus
Página 1 / 1

Letras e título
Acordes e artista

resetar configurações
OK