My Cat

Jack Off Jill

Composição de: Jessicka / Robin Moulder
tom: A
Tabbed by Ottis (GoblinK*)


e------------------
B------------------
G--------9----8----
D---7----9----8----
A---7----7----6----
E---5--------------
  Verse

e-----------------------
B-----------------------
G--------9----8----7----
D---7----9----8----7----
A---7----7----6----5----
E---5-------------------
  (Verse continued - alternate these two, except on the first verse.)

e------------------------
B------------------------
G----7----9----8----7----
D----7----9----8----7----
A----5----7----6----5----
E------------------------
  "My cat isn't crazy..."

e---------------
B---------------
G---------------
D--7-7---7-7----
A--7-7---7-7----
E--5-5---5-5----
  Ending
Página 1 / 1

Letras e título
Acordes e artista

resetar configurações
OK