Cifra Club

Aprenda

Star No Star

Jack Off Jill

Tab de baixo: Versão 2
standard tuning
slow, droning kind of tempo
Intro/verse

G---------------------|--------------|
D----------3--3-------|--3--3------2-|
A----3-2--3----2--3---|-3----2-2-3---|
E-5-----------------5-|--------------|

Chorus

G---------------------------------|
D-2-2-2-2---------------2-3-2-3-5-|
A---------2-2-2-2-5-5-5-----------|
E---------------------------------|

Bridge

G---------------------------------|
D-22222-0-22222-0-22222-0-2-3-----|
A-----------------------------2-3-|
E---------------------------------|

End

G---------------------------------|-------------|
D-22222-0-22222-0-22222-0-3-2-3-5-|-0-3-2-3-5---|
A---------------------------------|-------------|
E---------------------------------|-----------5-|
Composição de Jessicka / Robin Moulder / SMP
8 exibições

0 comentários

Ver todos os comentários

Conseguiu tocar?

0 Tocaram 0 Ainda não

Grave um vídeo tocando Star No Star e nos envie!

00:00 / 00:00
outros vídeos desta música
repetir qualidade Automático
Outros vídeos desta música
00:00 / 00:00
Automático

Cifra Club Pro

Aproveite o Cifra Club com benefícios exclusivos e sem anúncios
Cifra Club Pro
Aproveite o Cifra Club com benefícios exclusivos e sem anúncios
OK