Cifra Club

Aprenda

Alone In My Home

Jack White

Cifra: Principal (violão e guitarra)
Já pensou em usar uma coleção de roupas do Cifra Club? Responda as perguntas abaixo e nos ajude nessa missão! →
tom: A

[Riff 1]
    A               E               D               E
E|-----------------0---------------------------------------..
B|---------2-----------3-2-----------------2---------------..
G|-----0-2-----2-----------2-----------0-2-----2---1---1---..
D|---------------------------------------------------------..
A|---------------------------------------------------------..
E|---------------------------------------------------------..
    A               E               D               E
..-----------------0---------------0-----------------------|
..---------2-----------3-2-------------3-2-----------------|
..-----0-2-----2-----------2---------------2-----------1---|
..-------------------------------------------------2-------|
..---------------------------------------------------------|
..---------------------------------------------------------|

(Verse)
A            E        D            E
  This light   that shines on me tonight
         A          E      D               E
Turns on   when you wander through my door
A                  E        D             E
  And your friends   won't see you to the end, I'm sure
A          E        D      E (Riff 2)
  But you love them anyhow

[Riff 2] (on piano!)
E|----------------------------------|
B|----------------------------------|
G|----------4---7---9-------4---7---|
D|--2---6---------------6-----------|
A|----------2---5---7-------2---5---|
E|--0---4---------------4-----------|

(Chorus)
E
  Lost feelings of love
A
  Lost feelings of love
D             E
  That hover above me
E
  Lost feelings of love
A
  Lost feelings of love
D             E           D  E
  That hover above me


A       |E       |D            |E
A   E   |D   E  D|D C#* B* G#* |A

A     |E     |D     |E (Riff 1)
A     |E     |D     |E


(Verse)
A           E       D           E
  The ghost   that visit me the most, drop by
A               E             D          E
  'Cause they know they can find me here
A            E          D                E
  And they claim to be held from me in chains, but come on
A         E         D           E (Riff 2)
  They're guilty as sin my dear


(Chorus)
E
  I'm becoming a ghost
A
  Becoming a ghost
D                E
  So nobody can know me
E
  I'm becoming a ghost
A
  Becoming a ghost
D                E        D  E
  So nobody can know me

A       |E       |D            |E
A   E   |D   E  D|D C#* B* G#* |A

A     |E     |D     |E (Riff 1)
A     |E     |D     |E

(Verse)
A              E            D                  E
  These stones   that are thrown against my bones, break through
A           E           D            E
  But they hurt less as times goes on
A                   E   D            E
  And though alone,   I build my own home, to be sure
A       E       D            E  (Riff 2)
That nobody can touch me now,   Yeah


(Chorus)
E
  All alone in my home
A
  Alone in my home
D            E
  Nobody can touch me
E
  All alone in my home
A
  Alone in my home
D            E          D  E  A
  Nobody can touch me
Composição de JWIII
Colaboração e revisão:
  • Élison Duarte
261 exibições
    • ½ Tom
    • A
    • Bb
    • B
    • C
    • Db
    • D
    • Eb
    • E
    • F
    • F#
    • G
    • Ab
  • Adicionar à lista

    0 comentários

    Ver todos os comentários

    Conseguiu tocar?

    1 Tocaram 0 Ainda não

    Grave um vídeo tocando Alone In My Home e nos envie!

    00:00 / 00:00
    Outros vídeos desta música
    Repetir Qualidade Automático
    Outros vídeos desta música
    00:00 / 00:00
    Automático

    Cifra Club Pro

    Aproveite o Cifra Club com benefícios exclusivos e sem anúncios
    Cifra Club Pro
    Aproveite o Cifra Club com benefícios exclusivos e sem anúncios
    OK