Cifra Club

Aprenda

Sixteen Saltines

Jack White

Cifra: Principal (violão e guitarra)
Já pensou em usar uma coleção de roupas do Cifra Club? Responda as perguntas abaixo e nos ajude nessa missão! →
tom: G
Intro:
E|----------------------|
B|----------------------|
G|------------2-2--4-4--|
D|-2-2--5-5---2-2--4-4--|
A|-2-2--5-5---0-0--2-2--|
E|-0-0--3-3-------------|

Refrão:
E|---------------------|
B|---------------------|
G|-5-----7-------------|
D|-5(x8)-7(x8)---------|
A|-3-----5-------------|
E|---------------------|

Groovin' part:
E|---------------------|
B|---------------------|
G|---------------------|
D|-----0---------0-2---|
A|-------0---0---------|
E|-0-3---------3-------|

Pre-solo/Solo (Probably not the exact solo but still sounds good. Not sure of the exact
count but just play it however many times you'd like!)
E|-------------------55--777--101010--1212--------------|
B|---------555--888-------------------------------------|
G|------------------------------------------------------|
D|-9----------------------------------------------------|
A|-7(x8)------------------------------------------------|
E|-7----------------------------------------------------|

Guitar in the background before the end (played slower than earlier on)
E|---------------------|
B|---------------------|
G|-5-------7-----------|
D|-5(x16)--7(x17)------|
A|-3-------5-----------|
E|---------------------|

Little end, little end
E|----------|
B|----------|
G|----------|
D|-2-2--5-5-|
A|-2-2--5-5-|
E|-0-0--3-3-|

Composição de Jack White
Colaboração e revisão:
  • Matheus Araujo
6.226 exibições
    • ½ Tom
    • A
    • Bb
    • B
    • C
    • Db
    • D
    • Eb
    • E
    • F
    • F#
    • G
    • Ab
  • Adicionar à lista

    0 comentários

    Ver todos os comentários

    Conseguiu tocar?

    10 Tocaram 1 Ainda não

    Grave um vídeo tocando Sixteen Saltines e nos envie!

    00:00 / 00:00
    Outros vídeos desta música
    Repetir Qualidade Automático
    Outros vídeos desta música
    00:00 / 00:00
    Automático

    Cifra Club Pro

    Aproveite o Cifra Club com benefícios exclusivos e sem anúncios
    Cifra Club Pro
    Aproveite o Cifra Club com benefícios exclusivos e sem anúncios
    OK