Chave Na Mesa (part. Maiara e Maraisa)

Jads e Jadson

Composição: Douglas Mello / Flávinho Tinto / Nando Marx
Tom: Db (forma dos acordes no tom de C ) Capotraste na 1ª casa
[Intro]  C  F  C  F

            C           F
E|--3/5-3------------------------------------|
B|--x--------5-3-5~--------------------------|
G|--x--------x-------------------------------|
D|-----------x-------------------------------|
A|-------------------------------------------|
E|-------------------------------------------|

            C           F
E|--3/5-3------------------------------------|
B|--x--------5-3-5~--------------------------|
G|--x--------x-------------------------------|
D|-----------x-------------------------------|
A|-------------------------------------------|
E|-------------------------------------------|

      F
É melhor não te ligar
Só de ouvir sua voz eu esqueço
           C
O que eu prometi
Pra mim mesmo da última vez

       F
E não venha me ligar
Com a velha desculpa
                     C
Que esqueceu alguma coisa aqui em casa
      Dm
Um sapato, uma peça de roupa
     F
Um brinco, sei lá
        Dm
Se nós dois já sabemos
                      F
Aonde isso vai nos levar

      C
Você gosta de me hipnotizar
                   Em
Quando tira à sua roupa
                                 Am
Tô cansada desse amorzinho meia-boca
       F
Quero seu coração por inteiro
     Dm
Ou a cópia da chave na mesa
        F
Se não for pra dizer
                     G       F
Eu te amo! Não fala mais nada

      C
Você gosta de controlar
                               Em
Os meus batimentos, os meus arrepios
Toda ação tem uma reação
           Am
Tô acabando com isso
            F             Fm
Nem que eu morra de saudade
Eu não vou te ligar

( C  F  C  F )

            C           F
E|--3/5-3------------------------------------|
B|--x--------5-3-5~--------------------------|
G|--x--------x-------------------------------|
D|-----------x-------------------------------|
A|-------------------------------------------|
E|-------------------------------------------|

            C           F
E|--3/5-3------------------------------------|
B|--x--------5-3-5~--------------------------|
G|--x--------x-------------------------------|
D|-----------x-------------------------------|
A|-------------------------------------------|
E|-------------------------------------------|

       F
E não venha me ligar
Com a velha desculpa
                     C
Que esqueceu alguma coisa aqui em casa
      Dm
Um sapato, uma peça de roupa
     F
Um brinco, sei lá
        Dm
Se nós dois já sabemos
                      F
Aonde isso vai nos levar

      C
Você gosta de me hipnotizar
                   Em
Quando tira à sua roupa
                                 Am
Tô cansada desse amorzinho meia-boca
       F
Quero seu coração por inteiro
     Dm
Ou a cópia da chave na mesa
        F
Se não for pra dizer
                     G       F
Eu te amo! Não fala mais nada

      C
Você gosta de controlar
                               Em
Os meus batimentos, os meus arrepios
Toda ação tem uma reação
           Am
Tô acabando com isso
            F             Fm
Nem que eu morra de saudade

      C
Você gosta de controlar
                               Em
Os meus batimentos, os meus arrepios
Toda ação tem uma reação
           Am
Tô acabando com isso
            F             Fm
Nem que eu morra de saudade
        C
Eu não vou te ligar

            Dm            Fm
Nem que eu morra de saudade
        C            F
Eu não vou te ligar!

E|-------------------------------------------|
B|------8-6--5-------------------------------|
G|----5---------5~---------------------------|
D|--5----------------------------------------|
A|-------------------------------------------|
E|-------------------------------------------|
Página 1 / 1

Letras e título
Acordes e artista

resetar configurações
OK