Cifra Club

Voy A Volar

Jaguares

Cifra: Principal (violão e guitarra)
tom: D
 Vasrias veces
E|--------------------------------|
B|--------------------------------|
G|--------------------------------|
D|--------------------------------|
A|--------------------------------|
E|-0-0--2--3--0-0-| 0-0--3---------|




Este tab es parte del solo del  medio de la canción

4/4
  Gtr I
   S S  S  S S  S  S S  H       +Q   Q   H
E|----------------------------|----------------|
B|----------------------------|----------------|
G|--------------------9-11----|-(11)--9--12----|
D|------------9-11-12---------|----------------|
A|----9-10-12-----------------|----------------|
E|-12-------------------------|----------------|

   +Q   Q   H       Q   E  E  E E  E  E
E|----------------|--------------9-10-12--|
B|----------10----|-12-----10-12----------|
G|-(12)--9--------|-----12----------------|
D|----------------|-----------------------|
A|----------------|-----------------------|
E|----------------|-----------------------|

   H     +Q    Q     Q   +H      Q
E|-14----(14)--12--|-15--(15)----12--|
B|-----------------|-----------------|
G|-----------------|-----------------|
D|-----------------|-----------------|
A|-----------------|-----------------|
E|-----------------|-----------------|

   Q   +H      E  E    E  E  E  E  E  S  +S   Q
E|-19--(19)----17-15-|-14-15-17-15-14-12-(12)-14---|
B|-------------------|-----------------------------|
G|-------------------|-----------------------------|
D|-------------------|-----------------------------|
A|-------------------|-----------------------------|
E|-------------------|-----------------------------|

   +Q    Q  E  E E  Q  E  Q Q
E|-(14)--12-----------------------|
B|------------------10------------|
G|-----------9-11-9----12-11-9----|
D|--------------------------------|
A|--------------------------------|
E|--------------------------------|


W - whole (redonda)
H - half (blanca)
Q - quarter(negra)
E - 8th (corchea)
S - 16th (semicorchea)
+ - la nota anterior tiene dos duraciones la que le aparece
    arriba y la nota siguiete.
Composição de Saul Hernández
4 exibições
    • ½ Tom
    • A
    • Bb
    • B
    • C
    • Db
    • D
    • Eb
    • E
    • F
    • F#
    • G
    • Ab
  • Adicionar à lista

    0 comentários

    Ver todos os comentários

    Conseguiu tocar?

    0 Tocaram 0 Ainda não

    Grave um vídeo tocando Voy A Volar e nos envie!

    00:00 / 00:00
    Outros vídeos desta música
    Repetir Qualidade Automático
    Outros vídeos desta música
    00:00 / 00:00
    Automático

    Cifra Club Pro

    Aproveite o Cifra Club com benefícios exclusivos e sem anúncios
    Cifra Club Pro
    Aproveite o Cifra Club com benefícios exclusivos e sem anúncios
    OK