Cifra Club

You Give Me Something

Jamiroquai

Tab de baixo: Principal
exibições 3.749
Introdução 

Parte 01 de 02

G|----------------------------------------------|
D|----------------------------7-x---------------|
A|-5-5-5-x-5------------------------------------|
E|------------5-6-7--7-7-x-7------5-3-3-3-x-3---|

G|----------------------------------------------|
D|----------------------------------------------|
A|----------------3-4-5--5-5-x-5----------------|
E|-5-6-7--7-7-x-7----------------x-5-6-7--------|

Parte 02 de 02

G|----------------------------------------------|
D|----------7-x---------------------------------|
A|----------------------------------------------|
E|-7-7-x-7------2-3-3-3-x-3--5-6-7--7-7-x-7-----|

G|----------------------------------------------|
D|----------------------------------------------|
A|-3-4------------------------------------------|
E|----------------------------------------------|

Primeira parte

When I met you, you were so unique...

Parte 01 de 01

G|----------------------------------------------|
D|----------------------------7-x---------------|
A|-5-5-5-x-5------------------------------------|
E|------------5-6-7--7-7-x-7------5-3-3-3-x-3---|

G|--------------------------5-------------------|
D|----------------------------------------------|
A|----------------3-4-5--5----x-5---------------|
E|-5-6-7--7-7-x-7-----------------5-6-7--7-7-x-7|

G|----------------------------------------------|
D|----------------------------------------------|
A|----------------------------------------------|
E|-5--3-3-3-x-3--5-6-7--7-7-x-7-----------------|

Refrão 

You know you, you give me something...

Parte 01 de 01

G|----------------------------------------------|
D|-----------------------------7-x--------------|
A|-5-5-5-x-5------------------------------------|
E|-----------x-5-6-7--7-7-x-7------5-3-3-3-x-3--|

G|--------------------------5-------------------|
D|----------------------------------------------|
A|----------------3-4-5--5----x-5---------------|
E|-5-6-7--7-7-x-7-----------------x-5-6-7--7-7--|

G|----------------------------------------------|
D|------7-x-------------------------------------|
A|---------------------------------------3-4----|
E|-x-7------5--3-3-3-x-3--5-6-7--7-7-x-7--------|

Segunda parte 

Like the sunbeams from a perfect summer day...

Parte 01 de 03

G|------7---------------------------------------|
D|------------------------------7-x-------------|
A|-5-5----x-5-----------------------------------|
E|------------x-5-6-7--7-7-x-7------2-3-3-3-x-3-|

G|---------------------------7------------------|
D|----------------------------------------------|
A|------------------3-4-5-5----x-5--------------|
E|-x-5-6-7--7-7-x-7----------------x-5-6-7--7-7-|

Parte 02 de 03

G|----------------------------------------------|
D|-7-x------------------------------------------|
A|----------------------------------3-4---------|
E|-----2--3-3-3-x-3--5-6-7--7-7-x-7-------------|

G|----------------------------------------------|
D|----------------------------7-x---------------|
A|-5-5-5-x-5------------------------------------|
E|------------5-6-7--7-7-x-7------5-3-3-3-x-3---|

Parte 03 de 03

G|------------------------7---------------------|
D|----------------------------------------------|
A|----------------3-4-5-5---x-5-----------------|
E|-5-6-7--7-7-x-7---------------x-5-6-7-7-7-x-7-|

G|----------------------------------------------|
D|-7-x------------------------------------------|
A|-----------------------------------3-4--------|
E|-----5--3-3-3-x-3--5-6-7--7-7-x-7-------------|

Refrão 02

You know you, you give me something...

Parte 01 de 03

G|----------------------------------------------|
D|-----------------------------7-x--------------|
A|-5-5-5-x-5------------------------------------|
E|-----------x-5-6-7--7-7-x-7------5-3-3-3-x-3--|

G|--------------------------5-------------------|
D|----------------------------------------------|
A|----------------3-4-5--5----x-5---------------|
E|-5-6-7--7-7-x-7-----------------x-5-6-7--7-7--|

G|----------------------------------------------|
D|------7-x------------------------9-x----------|
A|---------------------------------------3-4----|
E|-x-7------5--3-3-3-x-3--5-6-7-7------7--------|

Parte 02  de 03

G|-----7----------------------------------------|
D|-----------------------------7-x-------5------|
A|-5-5---x-5------------------------------------|
E|-----------x-5-6-7--7-7-x-7------5-3-3---x-3--|

G|----------------------------------------------|
D|----------------------------------------------|
A|----------------3-4--5-5-5--x-5---------------|
E|-5-6-7--7-7-x-7-----------------x-5-6-7--7-7--|

Parte 03 de 03

G|----------------------------------------------|
D|------7-x-------------------------x-9-9-7-7---|
A|--------------------------------------------9-|
E|-x-7------5--3-3-3-x-3--5-6-7-7-7-------------|

Quarte parte Final 

ooh... Will you give me something...

Parte 01 de 07

G|----------------------------------------------|
D|----------------------------------------------|
A|-2/5------------------------------------------|
E|----------------------------------------------|

G|----------------------------------------------|
D|---------------------------7------------------|
A|-5-5-5-x-5------------------------------------|
E|-----------5-6--7-7-7-x-7----x-5--------------|

Parte 02 de 07

G|----------------------------------------------|
D|-----5----------------------------------------|
A|---------------------------3-4----------------|
E|-3-3---x-3--5-6--7-7-7-x-7--------------------|

G|----------------------------------------------|
D|----------------------------------------------|
A|-5-5-5-x-5------------------------------------|
E|-----------x-5-6-7-7-7-x-7--x-5-3-3-3-x-3-----|

G|----------------------------------------------|
D|-------------9--------------------------------|
A|-------------------3-4------------------------|
E|-x-5-6--7-7----x-9----------------------------|

Parte 03 de 07

G|------7---------------------------------------|
D|------------------------9------7-x------------|
A|-5-5----x-5-----------------------------------|
E|------------x-5-6--7-7----x-7------5-3-3-3-x-3|

G|----------------------------------------------|
D|----------------------------------------------|
A|----------------3-4---------------------------|
E|-5-6-7--7-7-x-7-------------------------------|

Parte 04 de 07

G|----------------------------------------------|
D|------------------------9--------------5------|
A|-5-5-5-x-5------------------------------------|
E|-----------x-5-6-7--7-7---x-7--x-5-3-3---x-3--|

G|----------------------------------------------|
D|----------------------------------------------|
A|------------------3-4-------------------------|
E|-x-5-6-7--7-7-x-7-----------------------------|

Parte 05 de 07

G|----------------------------------------------|
D|-----------------------------7-x--------------|
A|-5-5-5-x-5-----------------------7------------|
E|-----------x-5-6--7-7-7-x-7-------------------|

G|----------------------------------------------|
D|----------------------------------------------|
A|----------------------------------------------|
E|-3-3-3-x-3--5-6-7--7-7-x-7--------------------|

Parte 06 de 07

G|----------------------------------------------|
D|------------------------9-----7-------5-------|
A|-5-5-5-x-5------------------------------------|
E|-----------x-5-6-7--7-7---x-7---x-5-3---3-x-3-|

G|----------------------------------------------|
D|----------------------------------------------|
A|----------------3-4---------------------------|
E|-5-6-7--7-7-x-7-------------------------------|

Parte 07 de 07 ( tocar 3x )

G|------7---------------------------------------|
D|------------------------9------7-x------------|
A|-5-5----x-5-----------------------------------|
E|------------x-5-6--7-7----x-7------5----------|

G|----------------------------------------------|
D|------------5----7----------------------------|
A|------------------------------3-4-------------|
E|-3-3-3-x-3----5-----7-7-7-x-7-----------------|
Composição: Günther Janssen / Nick Fyffe / Rob HarrisColaboração e revisão:
  • Reginaldo Costa

0 comentários

    mostrar mais comentários

    Conseguiu tocar?

    0tocaram0ainda não

    Grave um vídeo tocando You Give Me Something e mande pra gente!

    00:00 / 00:00
    outros vídeos desta música
    repetirqualidadeautomática
    Outro vídeos desta música
      00:00 / 00:00
      automática
      Capítulos
      • Tocando a música
      • Dicas Iniciais / Equipamentos
      • Introdução - Parte 1 de 2
      • Introdução - Parte 2 de 2
      • Primeira Parte
      • Refrão
      • Segunda Parte - Parte 1 de 3
      • Segunda Parte - Parte 2 de 3
      • Segunda Parte - Parte 3 de 3
      • Segundo Refrão - Parte 1 de 3
      • Segundo Refrão - Parte 2 de 3
      • Segundo Refrão - Parte 3 de 3
      • Quarta Parte - Parte 1 de 7
      • Quarta Parte - Parte 2 de 7
      • Quarta Parte - Parte 3 de 7
      • Quarta Parte - Parte 4 de 7
      • Quarta Parte - Parte 5 de 7
      • Quarta Parte - Parte 6 de 7
      • Quarta Parte - Parte 7 de 7
      • Encerramento
      • Ficha Técnica
      OK