Notificações Amigos pendentes

      Jammil e Uma Noites

      Colorir Papel

      263.989 exibições
      Tom: C
      
      Intro: Dm7  Em7  Dm7  C7+
      E|-----8--8--8--7-7-5-5-3---5-5-5-3-3---------------3-3-5-5-3----------||
      B|-----10-10-10-8-8-6-6-5---6-6-6-5-5-6-6-5---6-6-6-5-5-6-6-5----------||
      G|------------------------------------7-7-5---7-7-7--------------------||
      D|---------------------------------------------------------------------||
      A|---------------------------------------------------------------------||
      E|---------------------------------------------------------------------||
      
      
      Toque do teclado que pode ser feito na pausa do solo, entre a 1ª e a 2ª parte (fica bem legal)
      
      
      E|----12/13-12-8---||
      B|-----------------||
      G|-----------------||
      D|-----------------||
      A|-----------------||
      E|-----------------||
      
      
      E|-----8--8--8--7-7-5-5-3---5-5-5-3-3-----------------3-3-1-0----------||
      B|-----10-10-10-8-8-6-6-5---6-6-6-5-5-6-6-5---6-6-6-6-5-5-3-1----------||
      G|------------------------------------7-7-5---7-7-7-7------------------||
      D|---------------------------------------------------------------------||
      A|---------------------------------------------------------------------||
      E|---------------------------------------------------------------------||
      
      
      Dm7                               C7+
      É um vento que passa e que leva   Raia o brilho de cor amarela
      Dm                C7+
      Planta o pé no chão
      Dm7                           C7+
      O amor dando volta na terra, Arco íris de luz aquarela
        Dm7       C7+
      Banda coração
      
      Refrão:
                          Dm7          C7+
      Vamos ver o pôr do sol Me dê a mão
                         Dm7          C7+
      Uma estrela só não é constelação
                         Dm7                   C7+
      Sem destino vamos juntos passear feito nuvens no céu
                        Dm7        C7+
      Derramar a tinta colorir papel
      
      Dm7       Em7
      E amanhecer nós dois
          Dm7           C7+
      Perfume, bem me quer
       Dm7             Em7
      Tem biscoito, queijo, bolo
       Dm7         C7+
      Leite no café
      
      Refrão 2x:
                          Dm7          C7+
      Vamos ver o pôr do sol Me dê a mão
                         Dm7         C7+
      Uma estrela só Não é constelação
                         Dm7                   C7+
      Sem destino vamos juntos Passear feito nuvens no céu
                        Dm7        C7+
      Derramar a tinta colorir papel
        Composição: Levi LimaColaboração e revisão:
        • marckosalexy
        • iggo
        • l.e.
        • rick1975
        • guitar_rafa
        • +1

        Comentários 58

        140 .
        • webc webc: Em 29/12/2015 17:35

          video aula por favor

        • lents lents: Em 17/06/2013 12:20

          puxa , é bem legal quando vejo os meus antigos alunos dando continuidade no seu aprendizado, e escolhendo boa musica pra tocar e ouvir, para

        • victor5005 victor5005: Em 09/04/2013 00:49

          O batida é de axé galera...

        • eduardo eduardo: Em 08/04/2013 18:37

          quem tem algum teclado para vender jQuery17205317633512895554_1365516442842? pv eu quero muito um eu amo teclado me ajudem.obrigado.

        • eduardo eduardo: Em 08/04/2013 18:37

          quem tem algum teclado para vender jQuery17205317633512895554_1365516442837? pv eu quero muito um eu amo teclado me ajudem.obrigado.

        • David David: Em 27/02/2013 19:03

          put's.. qual a batida certa em? kkk.. to fazenu na bagacera aki kkk ta bom mas ta um poku esquesitu em umas parte... rsrs

          • eduardo eduardo: Em 08/04/2013 18:42

            ela tem uns erro para consertalos vc tem que continuar segurando o ré para mudar para o dó

        • skard skard: Em 19/10/2012 16:15

          A música que marcou o ínicio de tudo com o amor da minha vida,...TE AMO!!!

        • jacksondblack jacksondblack: Em 14/08/2012 05:17

          o solo esta com alguns erros, mas é facil de tirar de ouvido :D

        • jacksondblack jacksondblack: Em 14/08/2012 05:16

          é um ritmo muito facil galera é uma levada simples, nao vejo problema em tocar

        140 cancelar

        conseguiu tocar?

        • •••
        Gabriella Dias6.910 visualizações
          ver covers de outras músicas »
          0:00 / 0:00

          Capítulos

            1 versão de violão dificuldade exibições contribuição e correção
            1 versão de guitarra dificuldade exibições contribuição e correção
            1 versão de cavaco dificuldade exibições contribuição e correção
            1 versão de teclado dificuldade exibições contribuição e correção
            2 versões de partiturasformatodownloadscontribuição
            play/pausefechar subir/descer velocidade
            6ª corda E5ª corda A4ª corda D3ª corda G2ª corda B1ª corda E
              acordes
              publicidade
              fechar
              ok