Cifra Club

Colorir Papel

Jammil e Uma Noites

Cifra: Principal
exibições 295.584
Tom: C
Intro: Dm7  Em7  Dm7  C7+
E|-----8--8--8--7-7-5-5-3---5-5-5-3-3---------------3-3-5-5-3----------||
B|-----10-10-10-8-8-6-6-5---6-6-6-5-5-6-6-5---6-6-6-5-5-6-6-5----------||
G|------------------------------------7-7-5---7-7-7--------------------||
D|---------------------------------------------------------------------||
A|---------------------------------------------------------------------||
E|---------------------------------------------------------------------||

Toque do teclado que pode ser feito na pausa do solo, entre a 1ª e a 2ª parte (fica bem legal)

E|----12/13-12-8---||
B|-----------------||
G|-----------------||
D|-----------------||
A|-----------------||
E|-----------------||

E|-----8--8--8--7-7-5-5-3---5-5-5-3-3-----------------3-3-1-0----------||
B|-----10-10-10-8-8-6-6-5---6-6-6-5-5-6-6-5---6-6-6-6-5-5-3-1----------||
G|------------------------------------7-7-5---7-7-7-7------------------||
D|---------------------------------------------------------------------||
A|---------------------------------------------------------------------||
E|---------------------------------------------------------------------||

Dm7                               C7+
É um vento que passa e que leva   Raia o brilho de cor amarela
Dm                C7+
Planta o pé no chão
Dm7                           C7+
O amor dando volta na terra, Arco íris de luz aquarela
  Dm7       C7+
Banda coração

Refrão:
                    Dm7          C7+
Vamos ver o pôr do sol Me dê a mão
                   Dm7          C7+
Uma estrela só não é constelação
                   Dm7                   C7+
Sem destino vamos juntos passear feito nuvens no céu
                  Dm7        C7+
Derramar a tinta colorir papel

Dm7       Em7
E amanhecer nós dois
    Dm7           C7+
Perfume, bem me quer
 Dm7             Em7
Tem biscoito, queijo, bolo
 Dm7         C7+
Leite no café

Refrão 2x:
                    Dm7          C7+
Vamos ver o pôr do sol Me dê a mão
                   Dm7         C7+
Uma estrela só Não é constelação
                   Dm7                   C7+
Sem destino vamos juntos Passear feito nuvens no céu
                  Dm7        C7+
Derramar a tinta colorir papel
Acordes para:
    Colaboração e revisão:

    0 comentários

      mostrar mais comentários

      Conseguiu tocar?

      68tocaram1ainda não

      Grave um vídeo tocando Colorir Papel e mande pra gente!

      00:00 / 00:00
      outros vídeos desta música
      repetirqualidadeautomática
      Outro vídeos desta música
        00:00 / 00:00
        automática
        OK