Cifra Club

Aprenda

Up The Beach

Jane's Addiction

Tab de baixo: Principal
Date: Sat, 11 Nov 1995 23:50:46 -0500 (EST)
From: david a piniella 
Subject: /j/janes_addiction/*

"up the beach"
by jane's addiction, from "nothing's shocking"
 
 
intro/main lick
G|-----7-----7-----7----7----7h9p7--|
D|--0-----0-----0-----0---0---------|                               
A|----------------------------------|
D|----------------------------------|
 
"here we go..."
G|----------------7----|
D|------------------0--|                               
A|---------------------|
D|---00-00--00-0-------|
 
"home..." fills
G|------------------------7--|
D|--5-4--------7/9------7----|                               
A|------5-4--------5---------|
D|-------------------0-------|


i know it's incomplete, but i didn't have the patience to keep on 
rewinding the tattered old tape i have :}

-d


Composição de Jane's Addiction / Perry Farrell
168 exibições

0 comentários

Ver todos os comentários

Conseguiu tocar?

0 Tocaram 0 Ainda não

Grave um vídeo tocando Up The Beach e nos envie!

00:00 / 00:00
outros vídeos desta música
repetir qualidade Automático
Outros vídeos desta música
00:00 / 00:00
Automático

Cifra Club Pro

Aproveite o Cifra Club com benefícios exclusivos e sem anúncios
Cifra Club Pro
Aproveite o Cifra Club com benefícios exclusivos e sem anúncios
OK