Piece of My Heart

Janis Joplin

Composição de: Bert Berns / Jerry Ragovoy
tom: A
Solo da introdução junto com a base

F#m           F#m     A         B B B C#m  C#m
-------------------------------------------9-
----------------------------5--------------9-
-4^-4-----2h4-2-----------6---6-8-8----------
------7p4-------4-2-4-4s7-------9-9-9-9s11---
---------------------------------------------
---------------------------------------------

 B           B D                      D
---------11------------------14-14s17--
-----7-7----7----------10-10-----------
---8----------------11-----------------
-9-------------9s12--------------------
---------------------------------------
---------------------------------------

 B                    B                     B7
---11s9---9---7---5-----2s4---4---5-----7-----12---11---9---7>-
---------------------------------------------------------------
-11-----9---8---6---6s2-----4---6---8-9---9s11---11---9---8----
---------------------------------------------------------------
---------------------------------------------------------------
---------------------------------------------------------------
                     "Oh Come on Come on, Come on Come on"
Verso 1 

  E              A              B   A
--------------0--------------5--7---5-
--------------0--------------5--7---5-
------0h1p0h1--------5h6p5h6----4---2-      Or --0h1---5h6--
----2--------------7------------4---2-  X2
-(2)------------(7)-------------------
--------------------------------------
"Didn't I make you feel"   "like you...
were my only man"          "Well Yeah and..

  E              A           B   B B B  B
--------------0--------------5---7-7-7--7-
--------------0--------------5---7-7-7--7-
------0h1p0h1--------5h6p5h6-----4-4-4--4-  Or --0h1---5h6--
----2--------------7-------------4-4-4--4-
-(2)------------(7)-----------------------
------------------------------------------
Didn't I give you nearly     "Honey You 
everything That a woman       know I did...
Possibly can"

Pre-Refrão:
 C#m           B                D
-9---9-9-9-----7-7-7---7--------10-10-10-10-10-
-9---9-9-9-----7-7-7---7--------10-10-10-10-10-
-6---6-6-6-----4-4-4---4--------7--7--7--7--7--
-6---6-6-6-----4-4-4---4--------7--7--7--7--7--
-----------------------------------------------
-----------------------------------------------
But Each Night "That I think    "Well I'm gonna
I tell myself  I've had enough" show you baby
that I"                         that a...

 B             B       B        B7      B7
-7--7--7-------7-------7--------7-------7------
-7--7--7-------7-------7--------7-------7------
-4--4--4-------4-------4--------4-------4------
-4--4--4-------4-------4--------4-------4------
-----------------------------------------------
-----------------------------------------------
Woman can be  "Come on Come on, Come on Come on
tough, I                                   and"
want you to..

Refrão: 
 E               A               B              B A
-------------0---------------5---------------7--7-5-
-------------0---------------5---------------7--7-5-
-----0h1p0h1---------5h6p5h6---------7h8p7h8----4-2-  Or --0h1---5h6---7h8--
---2---------------7---------------9------------4-2-
-2---------------7---------------9------------------
----------------------------------------------------
   Take it! Take "another little "heart now "Oh Oh!"
                   piece of my"    Baby"
  
   Break It! Break another little piece of my heart
                    now Darlin' yeah yeah yeah yeah

   Have It! Have another little piece of my heart
                              now baby...

 B A# A
-7-6--5-                           A     G#m F#m  E
-7-6--5-
-4-3--2-"You know you got it if it makes you feel good"
-4-3--2-                              "Oh yes indeed"
--------
--------

(Repete a mesma tab do verso 1, é a mesma coisa) 

"You're out on the streets lookin good,
and baby deep down in your heart, I guess
You know that it ain't right. Never never
never never never never hear me when I cry
at night" Babe and I cry all the time...

( repete a mesma tab do pré-refrão) se escuta a música é mais facil de conseguir tocar!!

But each time I tell myself that I,
When I can't stand the Pain. but when
you hold me in your arms, I sing It once
again, I said Come on Come on Come on Come on

{REPETE REFRÃO}

SOLO:
 F#m        A         B               F#m        A
----2-0h2-7s9-9-5---5---7s9-8-7-5-------17^-17^r----------19^-
----2-------------7-5-7-----------7-5h7----------19-17-19-----
-4^-----------------------------------------------------------
--------------------------------------------------------------
--------------------------------------------------------------
--------------------------------------------------------------

 B   F#m   A                   B                   F#m    A B
-19^~~~19-17----17------------------------------------14-17>19
-------------19----19-17-------14------14---14---14-14---17>19
-------------------------18-16----16-16^--16^--16^------------
--------------------------------------------------------------
--------------------------------------------------------------
--------------------------------------------------------------

B             B       B        B7      B7
-7--7--7-------7-------7--------7-------7------
-7--7--7-------7-------7--------7-------7------
-4--4--4-------4-------4--------4-------4------
-4--4--4-------4-------4--------4-------4------
-----------------------------------------------
-----------------------------------------------
Woman can be  "Come on Come on, Come on Come on
tough, I                                   and"
want you to..

(REFRÃO) 

 E               A               B              B A
-------------0---------------5---------------7--7-5-
-------------0---------------5---------------7--7-5-
-----0h1p0h1---------5h6p5h6---------7h8p7h8----4-2-  Or --0h1---5h6---7h8--
---2---------------7---------------9------------4-2-
-2---------------7---------------9------------------
----------------------------------------------------

   Take it! Take "another little "heart now "Oh Oh!"
                   piece of my"    Baby"
  
   Break It! Break another little piece of my heart
                    now Darlin' yeah yeah yeah yeah

   Have It! Have another little piece of of my heart
                              now baby...

 B A# A
-7-6--5-                           A     G#m F#m  E
-7-6--5-
-4-3--2-"You know you got it if it makes you feel good"
-4-3--2-                              "Oh yes indeed"
--------
Página 1 / 1

Letras e título
Acordes e artista

resetar configurações
OK