Cifra Club

Aprenda

Sumertime ( Live )

Janis Joplin

Cifra: Principal (violão e guitarra)
Quer fazer aulas de música com a gente? Responda essas perguntas
e nos ajude nesse projeto! →
tom: G
Author: Daniel Salvi Wunderlich
Created: June 11, 2003


Tabalature notation:

~  => vibrato
b  => bend
r  => release bend
/  => slide up
\  => slide down
h  => hammer on
p  => pull off
PM => palm mute




Tuning: E A D G B E 


Intro A: (Guitar 1)

  
|-15-14-15--------15-14-15---------|-15-14-15-------------------------|
|----------15--------------16------|----------151615------------------|
|----------------------------------|----------------171514-1514-------|
|----------------------------------|---------------------------171617-|
|----------------------------------|----------------------------------|
|----------------------------------|----------------------------------|

|----------------------------------|----------------------------------|
|-----------16-15------15-13-11----|-11/13--10---13-11-10---10/11-----|
|-1415-17--------------------------|----------------------------------|
|----------------------------------|----------------------------------|
|----------------------------------|----------------------------------|
|----------------------------------|----------------------------------|

|----------------------------------|----------------------------------|
|-8---11-10-8---8/10--7--------10--|-8--7--8----10---11-10-8--10-8----|
|----------------------------------|----------------------------------|
|----------------------------------|----------------------------------|
|----------------------------------|----------------------------------|
|----------------------------------|----------------------------------|

|----------------------------------|----------------------------------|
|--------------------------------8-|-10-11--11/13--11-10-11--11-10-8--|
|-10-8-7-8-7--7-----------7-8-10---|----------------------------------|
|--------------10-8--8-10----------|----------------------------------|
|----------------------------------|----------------------------------|
|----------------------------------|----------------------------------|

                        * Intro B start here 
|----------------------------------|----------------------------------|
|----8--------8-10-11--11/13~~-----|-11-10-11--11/13~~---11-10-11-11--|
|--8---7-8-10----------------------|----------------------------------|
|----------------------------------|----------------------------------|
|----------------------------------|----------------------------------|
|----------------------------------|----------------------------------|

|-10-----------------17--15-14-15--|-15-14-15--------15-14-15---------|
|----11-8-11-------16--------------|----------15--------------16------|
|----------------15----------------|----------------------------------|
|----------------------------------|----------------------------------|
|----------------------------------|----------------------------------|
|----------------------------------|----------------------------------|

|-15-14-15-------------------------|----------------------------------|
|----------151615------------------|---------16-15--------------------|
|----------------171514-1514-------|-1415-17--------17--15--14--------|
|---------------------------171617-|----------------------------17----|
|----------------------------------|----------------------------------|
|----------------------------------|----------------------------------|

|----------------------------------|----------------------------------|
|------------15--------------------|----------------------------------|
|-14--15-17------------------------|----------------------------------|
|----------------------------------|----------------------------------|
|----------------------------------|----------------------------------|
|----------------------------------|----------------------------------|


Intro B: (Guitar 2)


|----------------------------------|----------------------------------|
|----------------------------------|-4--3------3-------------3--4--3--|
|-------------------------2--3--5--|---------5----5--2--3--5----------|
|-------------------3--5-----------|----------------------------------|
|----------3--5--6-----------------|----------------------------------|
|-3--5--6--------------------------|----------------------------------|

|----------------------------------|----------------------------------|
|----------------------------------|----------------------------------|
|-5--3---5--2--3--2-----2--3--2----|-2-----------------------------2--|
|--------------------5-----------5-|----3--5-----------------3--5-----|
|----------------------------------|----------6--5--3--5--6-----------|
|----------------------------------|----------------------------------| 

                                                                 
|----------------------------------|----------------------------------|
|--------3--4--3----3--4---3-1-3-4-|-1h3------------------------------|
|-3--5-----------5-----------------|-----3-5-2-3---2------------------|
|----------------------------------|-------------5---3-5--------------|
|----------------------------------|---------------------6-6p3-5------|
|----------------------------------|------------------------------6-3-|



Part 1A: (Guitar 1)


|----------------------------3-----|-------3-------------3------------|
|------------3------3------3---3---|-----2---2---------1---1----------|
|----------3------3------3-------3-|---3-------3-----3-------3--------|
|--------5------4------3-----------|-2-------------1------------------|
|----------------------------------|----------------------------------|
|----------------------------------|----------------------------------|

   * Part 1B start here
|-------------------------3-5-6/8--|-6---------------6b7--------------|
|--------3------3---3-4-6----------|---8~~8---6--6h8------------------|
|------3------3--------------------|----------------------------------|
|--4/5-----3/4---------------------|----------------------------------|
|----------------------------------|----------------------------------|
|----------------------------------|----------------------------------|



Part 1B: (Guitar 2)


|----------------------------------|----------------------------------|
|----------------------------------|-3--5---(4)-----------------------|
|-------------------------2--3--5--|----------------------------------|
|-------------------3--5-----------|----------------------------------|
|----------3--5--6-----------------|----------------------------------|
|-3--5--6--------------------------|----------------------------------|



Part 2A: (Guitar 2)

                                                   * Part 2B start here
|-----X--X------X--X------X--X-----|-X--X------X--X--X------X--X--X---|
|-----X--X------X--X------X--X-----|-X--X------X--X--X------X--X--X---|
|-----5--5------5--5------5--5-----|-5--5------5--7--7------7--8--8---|
|-----5--5------5--5------5--5-----|-5--5------5--7--7------7--8--8---|
|-----3--3------3--3------3--3-----|-3--3------3--5--5------5--6--6---|
|-----X--X------X--X------X--X-----|-X--X------X--X--X------X--X--X---|
          PM        PM        PM         PM           PM           PM

|---X--X-X----X--X-X----X--X-X-----|-X--X-X---------------------------|
|---X--X-X----X--X-X----X--X-X-----|-X--X-X---------------------------|
|---8--7-7----7--5-5----5--3-3-----|-3--2-2---------------------------|
|---8--7-7----7--5-5----5--3-3-----|-3--2-2---------------------------|
|---6--5-5----5--3-3----3--1-1-----|-1--0-0---------------------------|
|---X--X-X----X--X-X----X--X-X-----|-X--X-X---------------------------|
                                           PM


Part 2B: (Guitar 1)


|----------------------------------|----------------------------------|
|-18b19-b20--20r18-15-18-15--------|----------------------------------|
|----------------------------------|---------don't know after that----|
|----------------------------------|----------------------------------|
|----------------------------------|----------------------------------|
|----------------------------------|----------------------------------|



>> Repeat parts 1A and 1B


Part 3A: (Guitar 2)

     * Part 3B start here
|---X--X------3--3------5--5-------|--6--6----------------------------|
|---X--X------4--4------6--6-------|--7--7----------------------------|
|---3--3------5--5------7--7-------|--8--8----------------------------|
|---3--3------5--5------7--7-------|--8--8----------------------------|
|---1--1------3--3------5--5-------|--6--6----------------------------|
|---X--X------X--X------X--X-------|--X--X----------------------------|
        PM        PM        PM            PM


Part 3B: (Guitar 1)


|----------------------------------|----------------------------------|
|---/8--6-----------------------6--|--8--6----------------/8--10~~~---|
|----------5----------------6/8----|--------8~~-----------------------|
|-------------8---5---5--8~--------|----------------------------------|
|-------------------8--------------|----------------------------------|
|----------------------------------|----------------------------------|



Part 4A: (Guitar 1)


|-15-14-15-------------------------|----------------------------------|
|----------151615------------------|---------16-15--------------------|
|----------------171514-1514-------|-1415-17--------17--15--14--------|
|---------------------------171617-|----------------------------------|
|----------------------------------|----------------------------------|
|----------------------------------|----------------------------------|

|-15-14-15--------15-14-15---------|-15-14-15-------------------------|
|----------15--------------16------|----------151615------------------|
|----------------------------------|----------------171514-1514-------|
|----------------------------------|---------------------------171617-|
|----------------------------------|----------------------------------|
|----------------------------------|----------------------------------|

|----------------------------------|-------------------------------14-|
|----------16-15---------18--------|------------15---15\--------16----|
|-1415-17---------15--17-------17--|-15--14--15------------8/15-------|
|----------------------------------|----------------------------------|
|----------------------------------|----------------------------------|
|----------------------------------|----------------------------------|

   * fast part (I hope it's correct)
|----------------------------------|----------------------------------|
|-15-16-13h15----15-13-16-15-13-16-|-15-13----------15-15-13-15----15-|
|-------------15-------------------|----------------------------15----|
|----------------------------------|----------------------------------|
|----------------------------------|----------------------------------|
|----------------------------------|----------------------------------|

|----------------------------------|----------------------------------|
|-13-1615-13-16-15-13--------------|---------don't know after that----|
|----------------------------------|----------------------------------|
|----------------------------------|----------------------------------|
|----------------------------------|----------------------------------|
|----------------------------------|----------------------------------|



Part 4B: (Guitar 2)


|----------------------------------|----------------------------------|
|----------------------------------|-3--4---3-------------------------|
|-------------------------2--3--5--|------5---3-5-2-3---2-------------|
|-------------------3--5-----------|------------------5---3-5--3------|
|----------3--5--6-----------------|--------------------------6--5-6--|
|-3--5--6--------------------------|----------------------------------|

|----------------------------------|----------------------------------|
|----------------------------------|--------------------4--3----------|
|----------------------------------|-----------2--3--5-----------5----|
|----------------------------------|-----3--5-------------------------|
|-3-5---3--------------------3--5--|--6-------------------------------|
|-----6---6--5--3---3--5--6--------|----------------------------------|

|----------------------------------|----------------------------------|
|--3b4r3----------------3--4--3----|----------------------------------|
|---------5-5--2--3--5-----------5-|--3--2--5--2--3-----2-------------|
|----------------------------------|-----------------5-----3--5-----3-|
|----------------------------------|-----------------------------6----|
|----------------------------------|----------------------------------|

|----------------------------------|----------------------------------|
|----------------------------------|--------------3--4--3-------------|
|----------------------------------|-----2--3--5----------------------|
|--------------------------------3-|--5-------------------------------|
|--5---6--3--5---6------3--5--6----|------------------------3--5--6---|
|--------------------6-------------|----------------------------------|

|----------------------------------|----------------------------------|
|-----------------4--3-----3-------|------------------------------3---|
|--------2--3--5--------5----------|--------2--3---------2--3--5------|
|--3--5----------------------------|--3--5---------3--5---------------|
|-----------------------------5--6-|-------------6--------------------|
|----------------------------------|----------------------------------|

|----------------------------------|----------------------------------|
|--4--3-----3-----------3-4----3---|----------------------------------|
|--------5-----3--5--2------5----3-|----------------------------------|
|----------------------------------|----------------------------------|
|----------------------------------|----------------------------------|
|----------------------------------|----------------------------------|



I'll post the rest of the tab later because i'm not sure about the
chords... Anyway, please e-mail me with corrections and sugestions 
for the rest of this beautiful song... :P
Compositor não encontrado.
29.037 exibições
    • ½ Tom
    • A
    • Bb
    • B
    • C
    • Db
    • D
    • Eb
    • E
    • F
    • F#
    • G
    • Ab
  • Adicionar à lista

    0 comentários

    Ver todos os comentários
    00:00 / 00:00
    Outros vídeos desta música
    Repetir Qualidade Automático
    Outros vídeos desta música
    00:00 / 00:00
    Automático

    Cifra Club Pro

    Aproveite o Cifra Club com benefícios exclusivos e sem anúncios
    Cifra Club Pro
    Aproveite o Cifra Club com benefícios exclusivos e sem anúncios
    OK