Completo incompleto

Jarabe de Palo

Composição de: Pau Donés
tom: C
[Intro]

E|---3---3---3---3---3---3---3---3-|
B|---5---5---5---5---3---3---3---3-|
G|---------------------------------|
D|---------------------------------|
A|-3---3---3---3---3---3---3---3---|
E|---------------------------------|

E|---3---3---3---3---3---3---3---3-|
B|---5---5---5---5---3---3---3---3-|
G|---------------------------------|
D|---------------------------------|
A|-3---3---3---3---2---2---2---2---|
E|---------------------------------|

E|---3---3---3---3---3---3---3---3-|
B|---1---1---1---1---3---3---3---3-|
G|---------------------------------|
D|---------------------------------|
A|-0---0---0---0---2---2---2---2---|
E|---------------------------------|

[Primeira Parte]

C                       G
 Soy un completo incompleto
                 Am
Incompleto por amor
                    G/b
La costilla que me falta
                  C
Cuelga de tu corazón
               G
Un seguro inseguro
                     Am
Media persona en el mundo
                 G/b
Un amante incompleto
                 Dm
Cada vez que te deseo

[Refrão]

 Dm                    F
Soy un completo incompleto
       G/b          C  Em
Si me giro y no te veo
 Dm                    F
Como una persona a medias
      G/b          C G  Am  G
Sabes a que me refiero

[Segunda Parte]

 C                     G
Soy un acorde incompleto
               Am
Menor y desafinado
                     G/b
Que va persiguiendo notas
                    C
Sin lograr una canción
                    G
Un rosal sin hojas secas
                 Am
Un perfume sin olor
                G/b
La pelicula de cine
                   Dm
Sin final en el guión

Dm                     F
Soy un completo incompleto

[Refrão Final]

 Dm                    F
Soy un completo incompleto
       G/b          C  Em
Si me giro y no te veo
 Dm                    F
Como una persona a medias
      G/b          C G  Am  G
Sabes a que me refiero
               G
Un seguro inseguro
                     Am
Media persona en el mundo
                 G/b
Un amante incompleto
                  C
Sin ti en mi corazón
Página 1 / 1

Letras e título
Acordes e artista

resetar configurações
OK