Cifra Club

Dos Días En La Vida

Jarabe de Palo

Cifra: Versão 2 (violão e guitarra)
tom: Am
guitarra 1
E|-8^p5-|-8^| /12-12-|---5---|---------|-------------|-----------|------|
B|------|------------|-6---5-|---------|-------------|-----------|-5----|
G|------|------------|-------|-5| -----|-5---------|-5-1-----|----2-|
D|------|------------|-------|------3^-|-----2^------|-----------|------|
A|------|------------|-------|---------|-------------|-----------|------|
E|------|------------|-------|---------|-------------|-----------|------|

guitarra 2
E|------|------------|-------|-----18^^|-----------12|-----------|------|
B|------|------------|-------|---------|----12^p10---|-----------|------|
G|------|------------|-------|---------|-------------|-----------|------|
D|------|------------|-------|---------|-------------|-----3| /4-|------|
A|------|------------|-------|---------|-------------|-----------|------|
E|------|------------|-------|---------|-------------|-----------|------|


segunda parte de la intro:

 gtr 1
E|--------|-----------------------------------|
B|--------|--------1----------1----------3----|
G|--------|-----------2----------2----------1-|
D|--------|----3-----------2-----------2------|
A|--------|--------------0--------------------|
E|--------|-1------------------------0--------|

 gtr 2
E|--------|-----------------------------------|
B|--------|-----------------------------------|
G|--------|-------1h2**-----------------------|
D|--------|-----------------------------------|
A|-3~| /3-|-----------------------------------|
E|--------|-----------------------------------|

 gtr 1
E|--------------------------------------------------X------------|
B|--------1-------------1---------1------------3----X-------1----|
G|-----------2------------2----------2------------1-X----------2-|
D|----3--------------3---------2------------2-------X----3-------|
A|---------------------------0----------------------X------------|
E|-1------------0-1----------------------0----------X-1----------|

                                                   X Hay dos dias en la vida
 Gtr 2
E|--------------------------------------------------------------|
B|-----1-1-1----1-3-4p3p1-3-1----1-1----1p0--1p0----------------|
G|---x2-------x2---------------2-----2-----------2-0-2----------|
D|--------------------------------------------------------------|
A|--------------------------------------------------------------|
E|--------------------------------------------------------------|

gtr 1
E|--------------------------------------|
B|---------1----------1------------3----|
G|------------2----------2------------1-| (RIFF 1)
D|-------3---------2------------2-------|
A|---------------0----------------------|
E|-0-1----------------------0-----------|

para los que no naci, dos momentos en la vida que no existen para mi


E|-----------------------------------------------------0--|
B|--------1-------------1---------1------------3-------1--|
G|-----------2------------2----------2------------1----2--|
D|----3--------------3---------2------------2----------2--|
A|---------------------------0-------------------------0--|
E|-1------------0-1----------------------0-------------0--|

ciertas cosas en la vida, no se hicieron para mi, hay
dos dias en la vida para los que no naci


primer solo:

E|----12-15-15--12---------10h12-------------------|
B|-15---------------15-13-------------13-13--10----|
G|-------------------------------------------------|
D|-------------------------------------------------|
A|-------------------------------------------------|
E|-------------------------------------------------|

E|---------------------------------------------------|
B|----10-13-13------10-13-10-------------------------|
G|-12------------12-----------12---------------------|
D|-------------------------------12p10--12p10--12p10-|
A|---------------------------------------------------|
E|---------------------------------------------------|


                   Am
El primero de esos días, fue cuando te conocí
                    Dm   G                C  E7
Me atraparon tus mentiras y me enamore de ti
                  Am
Del camelo de tus risas, de tus ganas de vivir
                       Dm                       E7
De la crueldad de tus caricias por las que creí morir


Coro (con el riff 1 de arriba):
                   F                      Am
Hay dos días en la vida, para los que no nací
                  E7                        F
Dos momentos en la vida que no existen para mi
                    F                        Am
Ciertas cosas en la vida, no se hicieron para mi
                  E7                     Am
Hay dos días en la vida para los que no nací

Segundo solo (lo mejor que pude hacer):

E|--7h8-7h8p7--5-------7h8-7h8p7--5----------------------------------------------------|
B|----------------6-------------------5--------------5---------------------------------|
G|----------------------------------------------5h7-----5h7----5h7p5h7p5----5-5--------|
D|-----------------------------------------5h7---------------------------7-------7-5h7-|
A|-------------------------------------------------------------------------------------|
E|-------------------------------------------------------------------------------------|

E|--7h8-7h8p7--5-------7h8-7h8p7--5--------------------------------------------|
B|----------------6-------------------5-------8-10-----8-10-----8-10-----8-10--|
G|-----------------------------------------9b-------9b-------9b-------9b-------|
D|-----------------------------------------------------------------------------|
A|-----------------------------------------------------------------------------|
E|-----------------------------------------------------------------------------|

E|------------------------------------|
B|------------------------------------|
G|--7h9p7--5h7p5----5-----------------|
D|----------------7---7-5h7p5--7-5h7--|
A|------------------------------------|
E|------------------------------------|


                   Am
El segundo de esos días fue justo el que te perdí
                 Dm   G                  C   E7
Se fue tu cara bonita, y mis ganas de vivir
                   Am
Se acabaron las mentiras y de todo aprendí
                       Dm                    E7
Que hay dos días en la vida para los que no nací


Hay dos días en la vida......................(se repite)

                    F                          Am
Me trague todo el veneno, del que llevaban tus besos
                   E7                        Am
Me empape del sufrimiento que escondia tu sonrisa
                      F                         Am
Descubri que con el tiempo, me perdi todo el respeto
                   E7                           Am
Compraste mis sentimientos con tus labios de carmin


Esta es la escala, los numeros son los trastes y las
letras las cuerdas, los taches son las unicas notas
que debes tocar:

    0     1     2     3     4     5     6     7     8     9    10    11     12
E|--X--|--X--|-----|--X--|-----|--X--|-----|--X--|--X--|-----|--X--|-----|--X--|
B|--X--|--X--|-----|--X--|-----|--X--|--X--|-----|--X--|-----|--X--|-----|-----|
G|--X--|-----|--X--|-----|--X--|--X--|-----|--X--|-----|--X--|--X--|-----|--X--|
D|--X--|-----|--X--|--X--|-----|--X--|-----|--X--|-----|--X--|--X--|-----|--X--|
A|--X--|-----|--X--|--X--|-----|--X--|-----|--X--|--X--|-----|--X--|-----|--X--|
E|--X--|--X--|-----|--X--|-----|--X--|-----|--X--|--X--|-----|--X--|-----|--X--|
00:00 / 00:00
Outros vídeos desta música
Repetir
Outros vídeos desta música
Composição de Pau Donés
1 exibições
    • ½ Tom
    • Am
    • Bbm
    • Bm
    • Cm
    • C#m
    • Dm
    • Ebm
    • Em
    • Fm
    • F#m
    • Gm
    • G#m
  • Adicionar à lista

    0 comentários

    Ver todos os comentários

    Conseguiu tocar?

    0 Tocaram 0 Ainda não

    Grave um vídeo tocando Dos Días En La Vida e nos envie!

    00:00 / 00:00

    Cifra Club Pro

    Aproveite o Cifra Club com benefícios exclusivos e sem anúncios
    Cifra Club Pro
    Aproveite o Cifra Club com benefícios exclusivos e sem anúncios
    OK